Song name
# A B C D E F G H I J K L M N O P Q R S T U V W X Y Z

Black Rebel Motorcycle Club - 1 51 tab

-------------------------------------------------------------------------------
			     1:51 - Black Rebel Motorcycle Club
-------------------------------------------------------------------------------
Tabbed by: niggel.n	
Email:

Tuning: Standart 


Verse (Clean with Delay)


e|---------------------------------------------------------------------------|
B|--5-3---3-------3----------------------------------------------------------|
G|------5---5-3-5---0-2-3-5-3-2-0-----------0-(0)----------------------------|
D|--------------------------------3-1-3-1-3------3-1-3-1-3-------------------|
A|---------------------------------------------------------3-(3)-------------|
E|---------------------------------------------------------------------------|


Chorus (Overdrive)

e|---------------------------------------------------------------------------|
B|------------------/-11-11-11-11-11-----------------------------------------|
G|--5--5--5-5-5-5---/-10-10-10-10-10-----------------------------------------|
D|--5--5--5-5-5-5------------------------------------------------------------|
A|--3--3--3-3-3-3------------------------------------------------------------|
E|---------------------------------------------------------------------------|

e|---------------------------------------------------------------------------|
B|---------------------------------------------------------------------------|
G|--11--11--11-11---10--8--10-10b--8-----------------------------------------|
D|--11--11--11-11---10--8--10-10b--8-----------------------------------------|
A|--9---9---9--9----8---6--8--8b---6-----------------------------------------|
E|---------------------------------------------------------------------------|

Bridge (Overdrive / Try alternate voicings too)

    C     G#    F

e|---------------------------------------------------------------------------|
B|--5-----4-----1------------------------------------------------------------|
G|--5-----5-----2------------------------------------------------------------|
D|--5-----6-----3------------------------------------------------------------|
A|--3-----6-----3------------------------------------------------------------|
E|--------4-----1------------------------------------------------------------|





************************************

| /   slide up
| \   slide down
| h   hammer-on
| p   pull-off
| ~   vibrato
| +   harmonic
| x   Mute note
| b   Bend
| pb  Pre-bend
| br  Bend release
| pbr Pre-bend release
| brb Bend release bend

************************************
Tap to rate this tab
# A B C D E F G H I J K L M N O P Q R S T U V W X Y Z