Song name
# A B C D E F G H I J K L M N O P Q R S T U V W X Y Z

Black Rebel Motorcycle Club - Beat The Devils Tattoo tab

It's based on the Ver3, only I changed it into standard tuning for ease. Have fun! Geza Szines

Intro & Verse

e|0-------------------------------------------------0----------------|
B|0-------------------------------------------------0----------------|
G|0--------------------------9-7---0------0---------0----------------|
D|2-5-7-9--9--9-12-9-7-5--2------9---7--7---7-9-7-5-2----------------|
A|2----------------------------------7--7---7---7-5-2----------------|
E|0----------------------------------5--5---5---5-3-0----------------|

Chorus

e|0------------------------------0---------------------0--------------|
B|0------------------------------0---------------------0--------------|
G|0------------------------------0---------------------0--------------|
D|2--------------2-0---0-2--2--2-2-5-7-9--9--9-12-9----2--------------|
A|2------------------2-----------2-5-7-9--9--9----9-10-2--------------|
E|0-3-5-3--0--0------------------0-3-5-7--7--7----7----0--------------|

Bridge

e|0-------------------0---------------|
B|0-------------------0---------------|
G|0-------------------0---------------|   3x
D|2-7b--5-7--7--5--4--2---------------|
A|2-------7--7--5--4--2---------------|
E|0-------5--5--3--2--0---------------|


e|0---------------------0--------------|
B|0---------------------0--------------|
G|0---------------------0--------------|   1x
D|2-5-7-9--9--9-12-9----2--------------|
A|2-5-7-9--9--9----9-10-2--------------|
E|0-3-5-7--7--7----7----0--------------|
Tap to rate this tab
# A B C D E F G H I J K L M N O P Q R S T U V W X Y Z