Song name
# A B C D E F G H I J K L M N O P Q R S T U V W X Y Z

Black Rebel Motorcycle Club - Let The Day Begin tab

Let The Day Begin
Black Rebel Motorcyle Club
B.R.M.C

tabbed by BRM_FC
For any question do not hesitate to mail me: fabienchaussat@hotmail.com

This is just a first try of the song, not the exact full tab.

This song is played in KMII tuning. I will not tune the E 6th as this string is not played.
heres how to tune it

e--->---no change------------>----|e
B--->---no change------------>----|B
G--->-up 1/2 tone (1 fret)--->----|G#
D--->down 1 &/2 tone (3 frets)->--|B
A--->down 1/2 tone (1 fret)--->---|G#
E--->---no change------------>----|E


Legend:
/=slide up
\=slide down
b=means bend,as in tone=full(2 frets),or 1/2=semitone(1 fret)
v=means to release bend back down
()=ghost note
^=hammer on/pull off
V= Vibrato
~=let ring

Intro + 1st Verse
e------------------------------------------------|
B------------------------------------------------|
G#-----------------------------------------------|
B-----5^7-7-7---5^7-7-7---5^7-7-7----------------|
G#-00---------0---------0---------8^0-0-3-3b1/2--|
E------------------------------------------------|

1st variation
e------------------------------------------------|
B---------------------------------0^2-5-6V-------|
G#-----------------------------------------------|
B-----5^7-7-7---5^7-7-7---5^7-7-7----------------|
G#-00---------0---------0------------------------|
E------------------------------------------------|

2nd variation
e------------------------------------------------|
B------------------------------------------------|
G#---------------------------------10V-9V--------|
B-----5^7-7-7---5^7-7-7---5^7-7-7----------------|
G#-00---------0---------0------------------------|
E------------------------------------------------|

pre chorus
e------------------------------------------------|
B------------------------------------------------|
G#-----------------------------------------------|
B-----5^7-7-7---5^7-7-7---5^7-7-7----------------|
G#-00---------0---------0------------------------|
E------------------------------------------------|

Chorus x2
"Here’s to you my love..."
e------------------------------------------------------------------------------------------|
B------------------------------------------------------------------------------------------|
G#---10V-9V-10V-10-10-10^12-12-12/14\12\9-9-9-9-9/10-10-10---------------------------------|
B------------------------------------------------------------5^7-7-7---5^7-7-7---5^7-7-7---|
G#---------------------------------------------------------00---------0---------0----------|
E------------------------------------------------------------------------------------------|

Solo x2
e----------------------------------------------------------|
B----------------------------------------------------------|
G#---3^0-0-3^0-0-3^0-0-5b1/2-3^0-0-5-3-0-------------------|
B----------------------------------------------------------|
G#---------------------------------------------------------|
E----------------------------------------------------------|


 2nd Verse
e------------------------------------------------|
B------------------------------------------------|
G#----9-9-x-x-x-9-9-x-x-x------------------------|
B-----7-7-x-x-x-7-7-x-x-x--few times-------------|
G#----0-0-x-x-x-0-0-x-x-x------------------------|
E------------------------------------------------|
      p.m.      p.m.  

Bridge
"Day begin, day begin, day start."
      4x 4x 4x
e-----11--9--7----------------------------|
B-----------------------------------------|
G#----10--9--7-3^0-0--3^0-0---------------|
B-----------------------------------------|
G#----------------------------------------|
E-----------------------------------------|
Tap to rate this tab
 
# A B C D E F G H I J K L M N O P Q R S T U V W X Y Z