Song name
# A B C D E F G H I J K L M N O P Q R S T U V W X Y Z

Black Rebel Motorcycle Club - Rifles tab

INTRO/VERSE

|---------------------------------------------------------------|
|---------------------------------------------------------------|
|-----12-12-12-------------------------12-12-12-----------------|
|---------------12--12-12/14-14------------------12--12/14-14---|
|-----10-10-10-------------------------10-10-10-----------------|
|-0-0-----------10--10-10/12-12----0-0-----------10--10/12-12---|

     A(?)         C

|----0------------8-------------------|
|----0------------8-------------------|  Listen for the rhythm.
|----0------------9-------------------|  Then back to first riff.
|----7------------10------------------|
|----7------------10------------------|
|----5------------8-------------------|


CHORUS

   Em           C         Am

|---7-----------8---------5-----------|
|---8-----------8---------5-----------|
|---9-----------9---------5-----------|
|---9-----------10--------7-----------|
|---7-----------10--------7-----------|
|---------------8---------5-----------|


BRIDGE

    F          Am       D       Am

|---1----------5--------5-------5-----|
|---1----------5--------7-------5-----|
|---2----------5--------7-------5-----|
|---3----------7--------7-------7-----|
|---3----------7--------5-------7-----|
|---1----------5----------------5-----|

    Am     G       Am      D

|---5------3-------5-------5----------|
|---5------3-------5-------7----------|
|---5------4-------5-------7----------|
|---7------5-------7-------7----------|
|---7------5-------7-------5----------|
|---5------3-------5------------------|


Song Order

Intro
Verse
Chorus
Verse
Chorus
Bridge
Verse into weird bridge (untabbed)
Verse
Chorus
Bridge
Tap to rate this tab
# A B C D E F G H I J K L M N O P Q R S T U V W X Y Z