Song name
# A B C D E F G H I J K L M N O P Q R S T U V W X Y Z

Black Rebel Motorcycle Club - Restless Sinner tab

Forgive me for the inaccuracy on the chorus! The rest, however, should be fairly 
accurate. the timing is a bit strange, so you gotta be really familiar with the song. listen 
carefully, and with time you'll get it.

Open D MINOR (not open D!) tuning
(DADFAD)



 d|----0-----0--------------|---0---0-------0------0--|
 A|------------4------------|---0---0-------0------0--|
 F|-------4-----------2~~~~~|---0---0-------0------0--|
 D|-------------------------|---0---0-------0------0--|
 A|-------------------------|----------0h2-----2h3----|
 D|-0-----------------------|-0---0-------------------|


 d|---0---0-----------------|---0---0-------0------0--|
 A|---0---0-----------------|---0---0-------0------0--|
 F|---0---0-2---------------|---0---0-------0------0--|
 D|---0---0-2---------------|---0---0-------0------0--|
 A|-----------3-------------|----------0h2-----2h3----|
 D|-0---0-------------------|-0---0-------------------|


 d|---0---0---0-------------|---0---0-------0------0--|
 A|---0---0-4---------------|---0---0-------0------0--|
 F|---0---0------2----------|---0---0-------0------0--|
 D|---0---0-----------------|---0---0-------0------0--|
 A|-------------------------|----------0h2-----2h3----|
 D|-0---0-------------------|-0---0-------------------|


 d|---0---0--0---0-0-----0-0-----0-0-------------|---0---0-------0------0--|
 A|---0---0--0---0-0-----0-0-----0-0-------------|---0---0-------0------0--|
 F|---0---0--0---0-0-----0-0-----0-0-------------|---0---0-------0------0--|
 D|---0---0--2/7-7-7-5-5-5-5-2-2-2-2-------------|---0---0-------0------0--|
 A|----------0---0-0-0-0-0-0-0-0-0-0---3~--------|----------0h2-----2h3----|
 D|-0---0----0---0-0-0-0-0-0-0-0-0-0------3~--0--|-0---0-------------------|


 d|---0---0-----------------|
 A|---0---0-----------------|
 F|---0---0-2---------------|
 D|---0---0-2---------------|
 A|-----------3-------------|
 D|-0---0-------------------|


(lyrics start here)
 Restless sinner rest in sin....

 d|---0---0---0-------------|---0---0-------0------0--|
 A|---0---0-4---------------|---0---0-------0------0--|
 F|---0---0------2----------|---0---0-------0------0--|
 D|---0---0-----------------|---0---0-------0------0--|
 A|-------------------------|----------0h2-----2h3----|
 D|-0---0-------------------|-0---0-------------------|


 d|---0---0-----------------|---0---0-------0------0--|
 A|---0---0-----------------|---0---0-------0------0--|
 F|---0---0-2---------------|---0---0-------0------0--|
 D|---0---0-2---------------|---0---0-------0------0--|
 A|-----------3-------------|----------0h2-----2h3----|
 D|-0---0-------------------|-0---0-------------------|


 d|---0---0---0-------------|---0---0-------0------0--|
 A|---0---0-4---------------|---0---0-------0------0--|
 F|---0---0------2----------|---0---0-------0------0--|
 D|---0---0-----------------|---0---0-------0------0--|
 A|-------------------------|----------0h2-----2h3----|
 D|-0---0-------------------|-0---0-------------------|


(the second time, it's a bit different, i do it the same)
 d|---0---0--0---0-0-----0-0-----0-0-------------|---0---0-------0------0--|
 A|---0---0--0---0-0-----0-0-----0-0-------------|---0---0-------0------0--|
 F|---0---0--0---0-0-----0-0-----0-0-------------|---0---0-------0------0--|
 D|---0---0--2/7-7-7-5-5-5-5-2-2-2-2-------------|---0---0-------0------0--|
 A|----------0---0-0-0-0-0-0-0-0-0-0---3~--------|----------0h2-----2h3----|
 D|-0---0----0---0-0-0-0-0-0-0-0-0-0------3~--0--|-0---0-------------------|


 d|---0---0-----------------|
 A|---0---0-----------------|
 F|---0---0-2---------------|
 D|---0---0-2---------------|
 A|-----------3-------------|
 D|-0---0-------------------|
NOTE: this part isnt done when it's about to transition to the chorus
(repeats until chorus)



Chorus:

 d|--------------------------------------|
 A|--------------------------------------|
 F|-2/9-9-9-9-9-9-9-9-9-9-9-12-9-9-9-9---|
 D|-0-0-0-0-0-0-0-0-0-0-0-0-0--0-0-0-0---|
 A|-0-0-0-0-0-0-0-0-0-0-0-0-0--0-0-0-0---|
 D|-0-0-0-0-0-0-0-0-0-0-0-0-0--0-0-0-0---|


 d|---------------------------------|
 A|---------------------------------|
 F|-2-2-2-2-2-2-2-2---------0-0-0-0-|
 D|-2-2-2-2-2-2-2-2---------0-0-0-0-|
 A|-0-0-0-0-0-0-0-0--3------0-0-0-0-|
 D|--------------------3--0---------|

(repeat)


Apart from this tab, you need to understand the song very well, to know the exact 
sequence and maybe you'll catch a thing or two i must have missed.
Tap to rate this tab
# A B C D E F G H I J K L M N O P Q R S T U V W X Y Z