Song name
# A B C D E F G H I J K L M N O P Q R S T U V W X Y Z

Black Rebel Motorcycle Club - American X tab

-------------------------------------------------------------------------------
                             AMERICAN X - Black Rebel Motorcycle Club
-------------------------------------------------------------------------------
Tabbed by: Moritz
E-mail: moritz.kristmann@gmail.com

Tuning: (same tuning Peter Hayes uses in "Red Eyes And Tears" and Robert in "Head Up High")

If you want to perform this song live with only one guitar just play the Guitar 2 tabs!

Tuning:
e=C------------------|
B=C------------------|
G=G------------------|
D=C------------------|
A=G------------------|
E=C------------------|

Pre-Intro: (repeat 2x)
C|---------------------------------------------------------------------------|
C|---------------------------------------------------------------------------|
G|--------0----------0----------0--------------------------------------------|
C|--12---\0----12---\0----12---\0----12--14--14b15b14------------------------|
G|---------------------------------------------------------------------------|
C|---------------------------------------------------------------------------|

Intro Guitar 1: (repeat 6x)
C|---------------------------------------------------------------------------|
C|---------------------------------------------------------------------------|
G|--------0----------0----------0--------------------------------------------|
C|--12---\0----12---\0----12---\0----12--14--14b15b14------------------------|
G|---------------------------------------------------------------------------|
C|---------------------------------------------------------------------------|

Intro Guitar 2: (listen to the album version to hear what part you have to play)
Part1:
C|--0------------------------------------------------------------------------|
C|--0------------------------------------------------------------------------|
G|--0--------------------------------12--14--14b15b14------------------------|
C|--0------------------------------------------------------------------------|
G|---------------------------------------------------------------------------|
C|---------------------------------------------------------------------------|
Part 2:
C|--0------------------------------------------------------------------------|
C|--0------------------------------------------------------------------------|
G|--0------------------------------------------------------------------------|
C|--0------------------------------------------------------------------------|
G|---------------------------------------------------------------------------|
C|---------------------------------------------------------------------------|

Vers 1 Guitar 1: (Guitar 1 repeats the Pre-Intro Riff nearly the whole song)

Vers 1 Guitar 2: (repeat 2x
C|--0--------------------0--------------------0--------------------0---------|
C|--0--------------------0--------------------0--------------------0---------|
G|--8--------------------7--------------------5--------------------5---------|
C|---------------------------------------------------------------------------|
G|---------------------------------------------------------------------------|
C|---------------------------------------------------------------------------|

C|--0--0--0--0--0--0--0--0--0--0--0--0--0--0--0--0---------------------------|
C|--0--0--0--0--0--0--0--0--0--0--0--0--0--0--0--0---------------------------|
G|--8--8--8--8--8--8--8--8--8--8--8--8-~8-~8-~8-~8---------------------------|
C|---------------------------------------------------------------------------|
G|---------------------------------------------------------------------------|
C|---------------------------------------------------------------------------|

C|--0--0--0--0--0--0--0--0--0--0--0--0--0--0---------------------------------|
C|--0--0--0--0--0--0--0--0--0--0--0--0--0--0---------------------------------|
G|--7--7--7--7--7--7--7--7--7--7--7--7-~8-~10b11b10--------------------------|
C|---------------------------------------------------------------------------|
G|---------------------------------------------------------------------------|
C|---------------------------------------------------------------------------|

C|--0--0--0--0--0--0--0--0--0--0--0--0--0--0--0--0---------------------------|
C|--0--0--0--0--0--0--0--0--0--0--0--0--0--0--0--0---------------------------|
G|--5--5--5--5--5--5--5--5--5--5--5--5-~5-~5-~5-~5---------------------------|
C|---------------------------------------------------------------------------|
G|---------------------------------------------------------------------------|
C|---------------------------------------------------------------------------|

Vers 2 Guitar 1: (Guitar 1 repeats the Pre-Intro Riff nearly the whole song)

Vers 2 Guitar 2: (repeat 2x
C|--0--------------------0--------------------0--------------------0---------|
C|--0--------------------0--------------------0--------------------0---------|
G|--8--------------------7--------------------5--------------------5---------|
C|---------------------------------------------------------------------------|
G|---------------------------------------------------------------------------|
C|---------------------------------------------------------------------------|

C|--0--0--0--0--0--0--0--0--0--0--0--0--0--0--0--0---------------------------|
C|--0--0--0--0--0--0--0--0--0--0--0--0--0--0--0--0---------------------------|
G|--8--8--8--8--8--8--8--8--8--8--8--8-~8-~8-~8-~8---------------------------|
C|---------------------------------------------------------------------------|
G|---------------------------------------------------------------------------|
C|---------------------------------------------------------------------------|

C|--0--0--0--0--0--0--0--0--0--0--0--0--0--0---------------------------------|
C|--0--0--0--0--0--0--0--0--0--0--0--0--0--0---------------------------------|
G|--7--7--7--7--7--7--7--7--7--7--7--7-~8-~10b11b10--------------------------|
C|---------------------------------------------------------------------------|
G|---------------------------------------------------------------------------|
C|---------------------------------------------------------------------------|

C|--0--0--0--0--0--0--0--0--0--0--0--0--0--0--0--0---------------------------|
C|--0--0--0--0--0--0--0--0--0--0--0--0--0--0--0--0---------------------------|
G|--5--5--5--5--5--5--5--5--5--5--5--5-~5-~5-~5-~5---------------------------|
C|---------------------------------------------------------------------------|
G|---------------------------------------------------------------------------|
C|---------------------------------------------------------------------------|

Chorus:

Guitar 1: (pianissimo)

C|--0--0--0--0--0--0--0--0--0--0--0--0--0--0--0--0---------------------------|
C|--0--0--0--0--0--0--0--0--0--0--0--0--0--0--0--0---------------------------|
G|-13-13-13-13-13-13-13-13-13-13-13-13~13~13~13~13---------------------------|
C|---------------------------------------------------------------------------|
G|---------------------------------------------------------------------------|
C|---------------------------------------------------------------------------|

C|--0--0--0--0--0--0--0--0--0--0--0--0--0--0--0--0---------------------------|
C|--0--0--0--0--0--0--0--0--0--0--0--0--0--0--0--0---------------------------|
G|-12-12-12-12-12-12-12-12-12-12-12-12~12~12~12~12---------------------------|
C|---------------------------------------------------------------------------|
G|---------------------------------------------------------------------------|
C|---------------------------------------------------------------------------|


C|--0--0--0--0--0--0--0--0--0--0--0--0--0--0--0--0---------------------------|
C|--0--0--0--0--0--0--0--0--0--0--0--0--0--0--0--0---------------------------|
G|-11-11-11-11-11-11-11-11-11-11-11-11-11-11-11-11---------------------------|
C|---------------------------------------------------------------------------|
G|---------------------------------------------------------------------------|
C|---------------------------------------------------------------------------|


C|--0--0--0--0--0--0--0--0--0--0--0--0--0--0--0--0---------------------------|
C|--0--0--0--0--0--0--0--0--0--0--0--0--0--0--0--0---------------------------|
G|-12-12-12-12-12-12-12-12-12-12-12-12~12~12~12~12---------------------------|
C|---------------------------------------------------------------------------|
G|---------------------------------------------------------------------------|
C|---------------------------------------------------------------------------|

Guitar 2: (forte)

C|--0--0--0--0--0--0--0--0--0--0--0--0--0--0--0--0---------------------------|
C|--0--0--0--0--0--0--0--0--0--0--0--0--0--0--0--0---------------------------|
G|--3--3--3--3--3--3--3--3--3--3--3--3-~3-~3-~3-~3---------------------------|
C|---------------------------------------------------------------------------|
G|---------------------------------------------------------------------------|
C|---------------------------------------------------------------------------|

C|--0--0--0--0--0--0--0--0--0--0--0--0--0--0--0--0---------------------------|
C|--0--0--0--0--0--0--0--0--0--0--0--0--0--0--0--0---------------------------|
G|--2--2--2--2--2--2--2--2--2--2--2--2-~2-~2-~2-~2---------------------------|
C|---------------------------------------------------------------------------|
G|---------------------------------------------------------------------------|
C|---------------------------------------------------------------------------|


C|--0--0--0--0--0--0--0--0--0--0--0--0--0--0--0--0---------------------------|
C|--0--0--0--0--0--0--0--0--0--0--0--0--0--0--0--0---------------------------|
G|--1--1--1--1--1--1--1--1--1--1--1--1-~1-~1-~1-~1---------------------------|
C|---------------------------------------------------------------------------|
G|---------------------------------------------------------------------------|
C|---------------------------------------------------------------------------|


C|--0--0--0--0--0--0--0--0--0--0--0--0--0--0--0--0---------------------------|
C|--0--0--0--0--0--0--0--0--0--0--0--0--0--0--0--0---------------------------|
G|--2--2--2--2--2--2--2--2--2--2--2--2-~2-~2-~2-~2---------------------------|
C|---------------------------------------------------------------------------|
G|---------------------------------------------------------------------------|
C|---------------------------------------------------------------------------|

SOLO (try to figure out the solo; it's no so difficult; just use some of the riffs from 
below; on request i can tab the solo too)

Bridge: (repeat 8x)

C|---------------------------------------------------------------------------|
C|---------------------------------------------------------------------------|
G|--12--14---14/15--15/17----12----------------------------------------------|
C|---------------------------------------------------------------------------|
G|---------------------------------------------------------------------------|
C|---------------------------------------------------------------------------|

Chorus:

Guitar 1: (pianissimo)

C|--0--0--0--0--0--0--0--0--0--0--0--0--0--0--0--0---------------------------|
C|--0--0--0--0--0--0--0--0--0--0--0--0--0--0--0--0---------------------------|
G|-13-13-13-13-13-13-13-13-13-13-13-13~13~13~13~13---------------------------|
C|---------------------------------------------------------------------------|
G|---------------------------------------------------------------------------|
C|---------------------------------------------------------------------------|

C|--0--0--0--0--0--0--0--0--0--0--0--0--0--0--0--0---------------------------|
C|--0--0--0--0--0--0--0--0--0--0--0--0--0--0--0--0---------------------------|
G|-12-12-12-12-12-12-12-12-12-12-12-12~12~12~12~12---------------------------|
C|---------------------------------------------------------------------------|
G|---------------------------------------------------------------------------|
C|---------------------------------------------------------------------------|


C|--0--0--0--0--0--0--0--0--0--0--0--0--0--0--0--0---------------------------|
C|--0--0--0--0--0--0--0--0--0--0--0--0--0--0--0--0---------------------------|
G|-11-11-11-11-11-11-11-11-11-11-11-11-11-11-11-11---------------------------|
C|---------------------------------------------------------------------------|
G|---------------------------------------------------------------------------|
C|---------------------------------------------------------------------------|


C|--0--0--0--0--0--0--0--0--0--0--0--0--0--0--0--0---------------------------|
C|--0--0--0--0--0--0--0--0--0--0--0--0--0--0--0--0---------------------------|
G|-12-12-12-12-12-12-12-12-12-12-12-12~12~12~12~12---------------------------|
C|---------------------------------------------------------------------------|
G|---------------------------------------------------------------------------|
C|---------------------------------------------------------------------------|

Guitar 2: (forte)

C|--0--0--0--0--0--0--0--0--0--0--0--0--0--0--0--0---------------------------|
C|--0--0--0--0--0--0--0--0--0--0--0--0--0--0--0--0---------------------------|
G|--3--3--3--3--3--3--3--3--3--3--3--3-~3-~3-~3-~3---------------------------|
C|---------------------------------------------------------------------------|
G|---------------------------------------------------------------------------|
C|---------------------------------------------------------------------------|

C|--0--0--0--0--0--0--0--0--0--0--0--0--0--0--0--0---------------------------|
C|--0--0--0--0--0--0--0--0--0--0--0--0--0--0--0--0---------------------------|
G|--2--2--2--2--2--2--2--2--2--2--2--2-~2-~2-~2-~2---------------------------|
C|---------------------------------------------------------------------------|
G|---------------------------------------------------------------------------|
C|---------------------------------------------------------------------------|


C|--0--0--0--0--0--0--0--0--0--0--0--0--0--0--0--0---------------------------|
C|--0--0--0--0--0--0--0--0--0--0--0--0--0--0--0--0---------------------------|
G|--1--1--1--1--1--1--1--1--1--1--1--1-~1-~1-~1-~1---------------------------|
C|---------------------------------------------------------------------------|
G|---------------------------------------------------------------------------|
C|---------------------------------------------------------------------------|


C|--0--0--0--0--0--0--0--0--0--0--0--0--0--0--0--0---------------------------|
C|--0--0--0--0--0--0--0--0--0--0--0--0--0--0--0--0---------------------------|
G|--2--2--2--2--2--2--2--2--2--2--2--2-~2-~2-~2-~2---------------------------|
C|---------------------------------------------------------------------------|
G|---------------------------------------------------------------------------|
C|---------------------------------------------------------------------------|

Outro Guitar 1: (repeat 6x)
C|---------------------------------------------------------------------------|
C|---------------------------------------------------------------------------|
G|--------0----------0----------0--------------------------------------------|
C|--12---\0----12---\0----12---\0----12--14--14b15b14------------------------|
G|---------------------------------------------------------------------------|
C|---------------------------------------------------------------------------|

Outro Guitar 2: (listen to the album version to hear what part you have to play)

C|----------0--------------0--------------0--------------0-------------------|
C|----------0--------------0--------------0--------------0-------------------|
G|--12--12-----12--14--14-----14--15--15-----15--17--17-----17---------------|
C|---------------------------------------------------------------------------|
G|---------------------------------------------------------------------------|
C|---------------------------------------------------------------------------|

************************************

| /   slide up
| \   slide down
| h   hammer-on
| p   pull-off
| ~   vibrato
| +   harmonic
| x   Mute note
| b   Bend
| pb  Pre-bend
| br  Bend release
| pbr Pre-bend release
| brb Bend release bend

************************************
Tap to rate this tab
# A B C D E F G H I J K L M N O P Q R S T U V W X Y Z