Song name
# A B C D E F G H I J K L M N O P Q R S T U V W X Y Z

Black Rebel Motorcycle Club - Spread Your Love tab

BLACK REBEL MOTORCYCLE CLUB - SPREAD YOUR LOVE 

TUNING: STUNDART

Intro :

Bass start 2 line

Note: Guitar Player Strums D Chord for 2 line

Then...
e|--2--2-2x-2-2x-2-2x-x-x--|
B|--3--3-3x-3-3x-3-3x-1-3--|
G|--2--2-2x-2-2x-2-2x-2-4--|  X2
D|--0--0-0x-0-0x-0-0x-3-5--|
A|--------------------3-5--|
E|--------------------x-x--|

e|-------------------------|
B|-------------------------|
G|-------------------------|
D|-5-5-5-5-5-5b6r5--3b4r3--|  X2
A|-------------------------|
E|-------------------------|

Verse :

e|--2--2-2x-2-2x-2-2x-x-x--|
B|--3--3-3x-3-3x-3-3x-1-3--|
G|--2--2-2x-2-2x-2-2x-2-4--|  X6
D|--0--0-0x-0-0x-0-0x-3-5--|
A|--------------------3-5--|
E|--------------------x-x--|

e|--10-----------------|
B|------13-------------|
G|----------10b--------| X2 Listen this part very good
D|--------------12-----|
A|---------------------|
E|---------------------|

e|-------------------------|
B|-------------------------|
G|-------------------------|
D|-5-5-5-5-5-5b6r5--3b4r3--|
A|-------------------------|
E|-------------------------|

e|--2--2-2x-2-2x-2-2x-x-x--|
B|--3--3-3x-3-3x-3-3x-1-3--|
G|--2--2-2x-2-2x-2-2x-2-4--|  X10
D|--0--0-0x-0-0x-0-0x-3-5--|
A|--------------------3-5--|
E|--------------------x-x--|


BRIDGE :

D,D,C,C,G,F,D,D . rithm guitar Strumming 

e|--------------------------------------|
B|-----\10-10-------12b13p10--12b13p10--|
G|-----\10-10-------12b13p10--12b13p10--| X2
D|--0-0-------12-12---------------------|
A|--------------------------------------|
E|--------------------------------------|

OR

e|--------------------------------------|
B|-----\10-10---------------------------|
G|-----\10-10-------12b13p10--12b13p10--|
D|--0-0-------12-12-12b13p10--12b13p10--|
A|--------------------------------------|
E|--------------------------------------|

e|--10-----------------|
B|------13-------------|
G|----------10b--------| X2
D|---------------------|
A|---------------------|
E|---------------------|

e|-------------------------|
B|-------------------------|
G|-------------------------|
D|-5-5-5-5-5-5b6r5--3b4r3--|
A|-------------------------|
E|-------------------------|

Then:

e|--2--2-2x-2-2x-2-2x-x-x--|
B|--3--3-3x-3-3x-3-3x-1-3--|
G|--2--2-2x-2-2x-2-2x-2-4--|  X10
D|--0--0-0x-0-0x-0-0x-3-5--|
A|--------------------3-5x-|
E|--------------------x-x--|

BRIDGE :

D,D,C,C,G,F,D . rithm guitar Strumming 

e|--10-----------------|
B|------13-------------|
G|----------10b--------| X2
D|---------------------|
A|---------------------|
E|---------------------|

e|--------------------------------------|
B|-----\10-10-------12b13p10--12b13p10--|
G|-----\10-10-------12b13p10--12b13p10--| X2
D|--0-0-------12-12---------------------|
A|--------------------------------------|
E|--------------------------------------|

OR

e|--------------------------------------|
B|-----\10-10---------------------------|
G|-----\10-10-------12b13p10--12b13p10--|
D|--0-0-------12-12-12b13p10--12b13p10--|
A|--------------------------------------|
E|--------------------------------------|

Then:

e|--2--2-2x-2-2x-2-2x-x-x--|
B|--3--3-3x-3-3x-3-3x-1-3--|
G|--2--2-2x-2-2x-2-2x-2-4--|  X8
D|--0--0-0x-0-0x-0-0x-3-5--|
A|--------------------3-5--|
E|--------------------x-x--|

End on D chord

Create by Alex Koveshnikov . my first tab . its 98% sure play this . 
Please Subscribe!
Tap to rate this tab
 
# A B C D E F G H I J K L M N O P Q R S T U V W X Y Z