Song name
# A B C D E F G H I J K L M N O P Q R S T U V W X Y Z

Black Rebel Motorcycle Club - Restless Sinner tab

Ok. This is my first real tab, and it isnt 100%, but a lot of it is correct. I'm open to 

suggestions though:)

Tuning: Open D-minor (DADFAD)        (This song is in blues shuffle timing)

Intro + Verse.
The intro and verses consist of variations on a 1 bar phrase. I'll leave you to work out the 

order they come in.

1                                2
  | 1  +  2  +  3  +  4  +  |      | 1  +  2  +  3  +  4  +  |
 d|----0-----0--------------|     d|-------------------------|
 A|-------3-----4-----------|     A|-------0-(0)-------------|
 F|-------------------2~~~~~|     F|-------0-(0)-------------|
 D|-------------------------|     D|-------0-----------------|
 A|-------------------------|     A|-----------0h2---2h3-----|
 D|-0-----------------------|     D|-0-----------------------|

3                                4
  | 1  +  2  +  3  +  4  +  |      | 1  +  2  +  3  +  4  +  |
 d|-------------------------|     d|----------0--------------|
 A|-------0-(0)-------------|     A|------(0)----4-----------|
 F|-------0-(0)-2-----------|     F|------(0)----------2~~~~~|
 D|-------0-----2-----------|     D|-------------------------|
 A|-------------------3-----|     A|-------------------------|
 D|-0-----------------------|     D|-0-----------------------|

There is another variation that I can't figure out, but it might go something like:

  | 1  +  2  +  3  +  4  +  | 1  +  2  +  3  +  4  +  |
 d|-------------------------|-------------------------|
 A|-------0-(0)-------0-----|-------------0-----------|
 F|-------0-(0)/4-----4-----|-------2-----2-----------|
 D|-------0-(0)/5-----5-----|-------3-----3-----------|
 A|------------/5--5--------|-------3--3--------------|
 D|-0-----------------------|-0-----------------2-----|

The verse ends with a 2 beat bar:

  | 1  +  2  +  |
 d|-------------|
 A|---(0)---(0)-|
 F|---(0)---(0)-|
 D|---(0)---(0)-|
 A|-------------|
 D|-2-----2-----|



Chorus:

  | 1  +  2  +  3  +  4  +  | 1  +  2  +  3  +  4  +  |
 d|-------0--0-----0--0--0--|-------0--0-----0--0--0--|
 A|-------0--0-----0--0--0--|-------0--0-----0--0--0--|
 F|/9T----------------9T--(9)/12T---------------12T---|
 D|-------------0T----------|-------------0T----------|
 A|-------------------------|-------------------------|
 D|-------------------------|-------------------------|

  | 1  +  2  +  3  +  4  +  | 1  +  2  +  3  +  4  +  |
 d|-------------------------|-------------------------|
 A|-------0--0--0--0--0--0--|----0--0--0--0--0--0--0--|
 F|-2-----2--2--2--2--2--2--|----0--0--0--0--0--0--0--|
 D|-2-----2--2--2--2--2--2--|----5--5--5--5--5--5--5--|
 A|-0T----------0T----------|/3T----------3T----------|
 D|-------------------------|-------------------------|
Tap to rate this tab
# A B C D E F G H I J K L M N O P Q R S T U V W X Y Z