Guitaretab - guitar tabs
Song name
# A B C D E F G H I J K L M N O P Q R S T U V W X Y Z

Black Rebel Motorcycle Club - At My Door tab

Black Rebel Motorcycle Club - At My Door


Tuning: half-step down. After, tune the third string 1 step up (F# to G# ).

- It goes like this:
d#||-----------2------------2-----------2-------|
A#||---------0------------0-----------0---------|
G#||-------2------------2-----------2-----------|
C#||-----0------------0-----------0-------------|
G#||---2------------2-----------2---------------|
D#||-2------------2-----------2-----------------|

- Intro and Verses

The chords above the tab are the bass notes.

      F#                               A
d#||--2--2-2-2-2-2--2-2-2--2-2-2--2-2--2--2-2-2-2-2--2-2-2--2-2-2--2-2--|
A#||--0--0-0-0-0-0--0-0-0--0-0-0--0-0--0--0-0-0-0-0--0-0-0--0-0-0--0-0--|
G#||--2--2-2-2-2-2--2-2-2--2-2-2--2-2--2--2-2-2-2-2--2-2-2--2-2-2--2-2--|
C#||--0--0-0-0-0-0--0-0-0--0-0-0--0-0--0--0-0-0-0-0--0-0-0--0-0-0--0-0--|
G#||--2--2-2-2-2-2--2-2-2--2-2-2--2-2--0--0-0-0-0-0--0-0-0--0-0-0--0-0--|
D#||--2--2-2-2-2-2--2-2-2--2-2-2--2-2--2--2-2-2-2-2--2-2-2--2-2-2--2-2--|

      E                                B
d#||--2--2-2-2-2-2--2-2-2--2-2-2--2-2--2--2-2-2-2-2--2-2-2--2-2-2--2-2---|
A#||--0--0-0-0-0-0--0-0-0--0-0-0--0-0--0--0-0-0-0-0--0-0-0--0-0-0--0-0---|
G#||--2--2-2-2-2-2--2-2-2--2-2-2--2-2--2--2-2-2-2-2--2-2-2--2-2-2--2-2---|
C#||--2--2-2-2-2-2--2-2-2--2-2-2--2-2--0--0-0-0-0-0--0-0-0--0-0-0--0-0---|
G#||--2--2-2-2-2-2--2-2-2--2-2-2--2-2--2--2-2-2-2-2--2-2-2--2-2-2--2-0h2-|
D#||--0--0-0-0-0-0--0-0-0--0-0-0--0-0--2--2-2-2-2-2--2-2-2--2-2-2--2-2---|

Cold wind wakes me from my
Sleep I've waited for this
Something for which I relied

Darkness takes me to my
Dreams I've waited for this
Something from which I can't hide

Ahhhh, ahhh, ahhhhh


- Before the chorus, you do something like this twice:
[ Tab from: http://www.guitaretab.com/b/black-rebel-motorcycle-club/80257.html ]
d#||--2--2-2-2-2-2---2-2-2---2-2-2--2-2-|
A#||--0--0-0-0-0-0---0-0-0---0-0-0--0-0-|
G#||--2--2-2-2-2-2---2-2-2---2-2-2--2-2-|
C#||--0--0-0-0-0-0---0-0-0---0-0-0--0-0-|
G#||--2--2-2-2-2-0-0h2-2-0-0h2-2-2--2-2-|
D#||--2--2-2-2-2-2---2-2-2---2-2-2--2-2-|

- Chorus
Same way as the verses, I think

      F#                               A
d#||--2--2-2-2-2-2--2-2-2--2-2-2--2-2--2--2-2-2-2-2--2-2-2--2-2-2--2-2--|
A#||--0--0-0-0-0-0--0-0-0--0-0-0--0-0--0--0-0-0-0-0--0-0-0--0-0-0--0-0--|
G#||--2--2-2-2-2-2--2-2-2--2-2-2--2-2--2--2-2-2-2-2--2-2-2--2-2-2--2-2--|
C#||--0--0-0-0-0-0--0-0-0--0-0-0--0-0--0--0-0-0-0-0--0-0-0--0-0-0--0-0--|
G#||--2--2-2-2-2-2--2-2-2--2-2-2--2-2--0--0-0-0-0-0--0-0-0--0-0-0--0-0--|
D#||--2--2-2-2-2-2--2-2-2--2-2-2--2-2--2--2-2-2-2-2--2-2-2--2-2-2--2-2--|

      E                                B
d#||--2--2-2-2-2-2--2-2-2--2-2-2--2-2--2--2-2-2-2-2--2-2-2--2-2-2--2-2---|
A#||--0--0-0-0-0-0--0-0-0--0-0-0--0-0--0--0-0-0-0-0--0-0-0--0-0-0--0-0---|
G#||--2--2-2-2-2-2--2-2-2--2-2-2--2-2--2--2-2-2-2-2--2-2-2--2-2-2--2-2---|
C#||--2--2-2-2-2-2--2-2-2--2-2-2--2-2--0--0-0-0-0-0--0-0-0--0-0-0--0-0---|
G#||--2--2-2-2-2-2--2-2-2--2-2-2--2-2--2--2-2-2-2-2--2-2-2--2-2-2--2-0h2-|
D#||--0--0-0-0-0-0--0-0-0--0-0-0--0-0--2--2-2-2-2-2--2-2-2--2-2-2--2-2---|

I'll never see it 'til its at my door
Til its at my door, it will be ignored
I'll never see it 'til its at my door
Til its at my door, it will be ignored

- Verses 2nd part:

Nothing seems to ease my
Conscience seems to be
Unconscious, all I have realised

Sorrow seems to eat my
Being, only leaves me
Seeing all I have is gone

Ahhhh, ahhh, ahhhhh

- Chorus:

Iíll never see it til itís at my door
Til itís at my door, it will be ignored
Iíll never see it til itís at my door
Til itís at my door, it will be ignored




Jo„o Vitor
Related for At My Door tab