Song name
# A B C D E F G H I J K L M N O P Q R S T U V W X Y Z

Black Rebel Motorcycle Club - As Sure As The Sun tab

Guitar during bass intro

|-----------------------------|
|---4b5r----------------------|
|-----------------------------|
|-----------------------------|
|-----------------------------|
|-----------------------------|


Intro
|----------------------------------|
|-5-4------------5-4---------------|
|-5-5------------5-5---------------|
|-5-5---5-5-5-5--5-5--5-5-5-5------|
|-3-3---3-3-3-3--3-3--3-3-3-3------|
|----------------------------------|

         I believe that the intro is the same as the verse, without the four power 
in the middle of the major/minor chords.
Tap to rate this tab
 
# A B C D E F G H I J K L M N O P Q R S T U V W X Y Z