Song name
# A B C D E F G H I J K L M N O P Q R S T U V W X Y Z

Black Rebel Motorcycle Club - All You Do Is Talk tab

-------------------------------------------------------------------------------
	       ALL YOU DO IS TALK - Black Rebel Motorcycle Club
-------------------------------------------------------------------------------
Tabbed by:Andrew Spinelli
Email:schroedersniper5@aol.com

Tuning:Standard, Capo 1 (Chords with letters above them have fret markings and chord
relative to the capo)

Intro: Slightly distorted with light, airy, distant sound

    A    D    A   F#m   E    D    A    E    D    A
e|--0----2----0----2----0----2----0----0----2----0--|
B|--2----3----2----2----0----3----2----0----3----2--|
G|--2----2----2----2----1----2----2----1----2----2--|x2
D|--2----0----2----4----2----0----2----2----0----2--|
A|--0---------0----4----2---------0----2---------0--|
E|--0---------0----2----0---------0----0---------0--|

Riff 1:Clean Rhythm guitar strums above chord progression without airy effects
entire rest of song(except in solo and outro), Lead plays this riff with light distortion.

e|--------------------------------------------------|
B|-15-15-15-15-15-15-15-15-15-----------------------|
G|----------------------------15-17-15-17-15-15-15--|x2
D|--------------------------------------------------|
A|--------------------------------------------------|
E|--------------------------------------------------|

riff 2:

e|-----------10----------------------10---------------------10----------|
B|----------------------------------------------------------------------|
G|--10/12\10----10/12-15----10/12\10----10/12-12---10/12\10----10/12-10-|
D|----------------------------------------------------------------------|
A|----------------------------------------------------------------------|
E|----------------------------------------------------------------------|

riff 3:

e|-------------------------------------------|
B|--------15--------------------15-----------|
G|--10/12------10/12-12---10/12------10/12\--|
D|-------------------------------------------|
A|-------------------------------------------|
E|-------------------------------------------|

Solo:Lead Plays This During Solo, while Rhythm Continues strumming Intro chord progression.

e|----------------------------------------|
B|----------------------------------------|
G|-----------10-----------------10--------|x4
D|--8--10-12-----12p10-8--10-12----12-10--|
A|----------------------------------------|
E|----------------------------------------|

At this point in solo, the two guitars continue as follows (Rhythm guitar constantly strumming)

e|--------------------------------------------------------|
B|--------------------------------------------------------|
G|------------------8-----------------7-----5-----3-------|  (Lead)
D|-8---10b11r10-8\6---6-6---8b9r8-6\5---5\3---3\1----1----|
A|-----------------------------------------------------5--|
E|--------------------------------------------------------|
 | A                                                   A  |
e|-0---------------------------------------------------0--|
B|-2--------------9-----------------8-----6-----4------2--|
G|-2--------------8-----------------7-----5-----3------2--| (Rhythm)
D|-2--------------6-----------------5-----3-----1------2--|
A|-0---------------------------------------------------0--|
E|-0---------------------------------------------------0--|

Final Chorus:

e|-------------------------------|
B|-15b16r15-15b16-r-15-15b16r15--|
G|-------------------------------|
D|-------------------------------|
A|-------------------------------|
E|-------------------------------|

e|-------------------------------------------------|
B|-15-15-15-15-15-15-15-15-15----------------------|
G|----------------------------15-17-15-17-15-15-15-|x2
D|-------------------------------------------------|
A|-------------------------------------------------|
E|-------------------------------------------------|

e|----------------------------------------------------------------------|
B|-----------15----------------------15---------------------15----------|
G|--10/12\10----10/12-15----10/12\10----10/12-12---10/12\10----10/12-10-|
D|----------------------------------------------------------------------|
A|----------------------------------------------------------------------|
E|----------------------------------------------------------------------|

e|----------------------------------------|
B|-------15------------------15-----------|
G|--10/------12-\-10---10/12----10/12-12\-|
D|----------------------------------------|
A|----------------------------------------|
E|----------------------------------------|

outro: Both guitars repeat solo section

lead ends with this note once section is finished

e|--------|
B|--------|
G|--(10)--|
D|--------|
A|--------|
E|--------|


| /  slide up
| \  slide down
| h  hammer-on
| p  pull-off
| ~  vibrato
| +  harmonic
| x  Mute note
===============================================================================
Tap to rate this tab
# A B C D E F G H I J K L M N O P Q R S T U V W X Y Z