Song name
# A B C D E F G H I J K L M N O P Q R S T U V W X Y Z

Black Sabbath - Embryo Live tab

this is the video of the version i'm transcribing:
http://www.youtube.com/watch?v=r7WPEWjv1zw

e|-0-0-0-0-0-0-0-0-0-0-0---|
B|-------------------------|
G|-------------------------|
D|-2-4-5-4-2-4-5-4-2-2-0---|
A|-------------------------|
E|-------------------------|

e|-0-0-0-0-0-0-0-0-0-0-0---|
B|-------------------------|
G|-------------------------|
D|-5-7-9-7-5-7-5-4-2-2-0---|
A|-------------------------|
E|-------------------------|

e|-0-0-0-0-0-0-0-0-0-0-0---|
B|-------------------------|
G|-------------------------|
D|-9 7-5-4-2-4-5-4-2-2-0---|
A|-------------------------|
E|-------------------------|

e|-0-0-0-0-0-0-0-0-0-0-0---|
B|-------------------------|
G|-------------------------|
D|-2-4-5-4-2-4-5-4-2-2-0---|
A|-------------------------|
E|-------------------------|

e|-0--0-0-0--0-0-0-0-0-0-0---|
B|---------------------------|
G|---------------------------|
D|-14-12-9-12-7-9-5-4-2-2-0--|
A|---------------------------|
E|---------------------------|

e|-0-0-0-0-0-0-0-0-0-0-0---|
B|-------------------------|
G|-------------------------|
D|-2-4-5-4-2-4-5-4-2-2-0---|
A|-------------------------|
E|-------------------------|

e|-3-2-0-0-0-0-0-0-0-0-0---|
B|-------------------------|
G|-------------------------|
D|-0-0-0-2-2-4-5-4-2-2-0---|
A|-------------------------|
E|-------------------------|

e|-7-5-3-0-0-0-0-0-0-------|
B|-------------------------|
G|-------------------------|
D|-5-4-2-0-2-4-5-4-2-------|
A|-------------------------|
E|-------------------------|
Tap to rate this tab
# A B C D E F G H I J K L M N O P Q R S T U V W X Y Z