Guitaretab - guitar tabs
Song name
# A B C D E F G H I J K L M N O P Q R S T U V W X Y Z

Black Sabbath - You Wont Change Me tab

                              You Won't Change Me
                                 Black Sabbath
                              Technical Ecstasy, 1976
p= pull off
h= hammer on
~=vibrato
/=slide up to
\=slide down to

First riff starts at 0:21 and goes until 0:32
Repeat this riff 4 times, it should end at 1:00/1:01
0:21                                           0:32
e|---------------------------------------------------------------------------|
B|---------------------------------------------------------------------------|
G|---------------------------------------------------------------------------|
D|----------------------------------------------5----------------------------|
A|-----5----4----3----2p0---------5--4--3--2h3-------------------------------|
E|--------------------------2------------------------------------------------|

Keyboard/Synth part - 1:02-1:07. This is 4 bars, and the guitar comes in on the 4th beat of bar 4.


Verse 1
Riff 2   1:07-1:22, first time.
e|---------------------------------------------------------------------------|
B|---------------------------------------------------------------------------|
G|-------------------------------------------------------8p5-----------------|
D|---------------------------------------------------------------------------|
A|-----5---10-------10---6------6----3------5-----10-------------------------|
E|-----3---8--------8----4------4----1------3----8---------------------------|


e|--------------------------------------------------------------------------------|
B|----------------------13~-------------------------------------------------------|
G|-----------------------------------8p5---------3/5------------------------------|
D|--------------------------------------------------------------------------------|
A|----5---10--------10--6-------6----3-----5-----10-------------------------------|
E|----3---8---------8---4-------4----1-----3-----8--------------------------------|

Chorus 1
e|-----------------------------------------------------------------------------|
B|-----------------------------------------------------------------------------|
G|-----------------------------------------------------------------------------|
D|------8----------------------------------------------------------------------|
A|------6----------6--------6\3---------3/10-----------------------------------|
E|-----------------4--------4\1---------1/8------------------------------------|

   over the G# slide to F, play this
e|----------------------------------|
B|----------13p11--11---------------|
G|----------------------------------|
D|----------------------------------|
A|----------------------------------|
E|----------------------------------|

The other fill goes over the slide from F to C
It's something like this, couldn't figure it out exactly. It's missing a few notes.
e|---------------------------------------------------------------------------|
B|---13--11------------------------------------------------------------------|
G|-----------12--11--10--11--10h11p10--12------------------------------------|
D|----------------------------------------13--10-----------------------------|
A|---------------------------------------------------------------------------|
E|---------------------------------------------------------------------------|


Repeat the chorus riff twice, with the fills.

Then it's the Keyboard/Synth part for 2 bars at 2:03.

Riff one goes with the next verses until 2:37

Fill played at 2:22 over a C5.
e|---------------------------------------------------------------------------|
B|--------------------4--6--6--4---------------------------------------------|
G|-----------3h5-------------------------------------------------------------|
D|------3h5-------5----------------------------------------------------------|
A|---------------------------------------------------------------------------|
E|---------------------------------------------------------------------------|


Chorus again at 2:39
Play it twice, then add
e|---------------------------------------------------------------------------|
B|---------------------------------------------------------------------------|
G|---------------------------------------------------------------------------|
D|---------------------------------------------------------------------------|
A|-----5--5--5--5--5--5--5--5--5--5--5--5--5--5--5--5------------------------|
E|-----3--3--3--3--3--3--3--3--3--3--3--3--3--3--3--3------------------------|
      pm.............................................

[ Tab from: http://www.guitaretab.com/b/black-sabbath/113613.html ]
Right before solo  3:07      This is also played under the solo. From  3:28-4:08
e|---------------------------------------------------------------------------|
B|---------------------------------------------------------------------------|
G|---------------------------------------------------------------------------|
D|----7---6---5---4---7---6---5---4---7---6---5---4---3----------------------|
A|----5---4---3---2---5---4---3---2---5---4---3---2---1-----6----------------|
E|----------------------------------------------------------4----------------|

Right after solo
e|---------------------------|
B|---------------------------|
G|---------------------------|
D|--------5----------5-------|
A|--------3----5-----3-------|
E|-------------3-------------|
Hold the first 2 for one bar each and the third gets held under the Keyboard/Synth Part.

Play the verse Riff twice
4:18-4:46
   this fill over F                 this fill over C
e|---------------------------------------------------------------------------|
B|---------------------------------------------------------------------------|
G|---------------8h10p8---8--------------------------8-----------------------|
D|----8h10p8h10-------------10----------8--10--8--10-----10------------------|
A|---------------------------------------------------------------------------|
E|---------------------------------------------------------------------------|

  Played over D# at 4:47
e|---------------------------------------------------------------------------|
B|---------------------------------------------------------------------------|
G|------------------------------------10--8----------------------------------|
D|----------------------8--10--8--10-----------------------------------------|
A|-------8--10--8--10--------------------------------------------------------|
E|---------------------------------------------------------------------------|
   pm......................................


Repeat Chorus 1, with the same fills.
4:47-5:10

Chorus 1
e|-----------------------------------------------------------------------------|
B|-----------------------------------------------------------------------------|
G|-----------------------------------------------------------------------------|
D|------8----------------------------------------------------------------------|
A|------6----------6--------6\3---------3/10-----------------------------------|
E|-----------------4--------4\1---------1/8------------------------------------|

   over the G# slide to F, play this
e|----------------------------------|
B|----------13p11--11---------------|
G|----------------------------------|
D|----------------------------------|
A|----------------------------------|
E|----------------------------------|

The other fill goes over the slide from F to C
It's something like this, couldn't figure it out exactly. It's missing a few notes.
e|---------------------------------------------------------------------------|
B|---13--11------------------------------------------------------------------|
G|-----------12--11--10--11--10h11p10--12------------------------------------|
D|----------------------------------------13--10-----------------------------|
A|---------------------------------------------------------------------------|
E|---------------------------------------------------------------------------|


e|---------------------------------------------------------------------------|
B|---------------------------------------------------------------------------|
G|---------------------------------------------------------------------------|
D|---------------------------------------------------------------------------|
A|-------5-5-5-5-5-5-5-5-5-5-5-5-5-5-5-5-------------------------------------|
E|-------3-3-3-3-3-3-3-3-3-3-3-3-3-3-3-3-------------------------------------|

   Then this again   5:15-6:15
e|---------------------------------------------------------------------------|
B|---------------------------------------------------------------------------|
G|---------------------------------------------------------------------------|
D|----7---6---5---4---7---6---5---4---7---6---5---4---3----------------------|
A|----5---4---3---2---5---4---3---2---5---4---3---2---1----------------------|
E|---------------------------------------------------------------------------|

  This once again, hold last chord until the end.
e|---------------------------------------------------------------------------|
B|---------------------------------------------------------------------------|
G|---------------------------------------------------------------------------|
D|------5------5-------------------------------------------------------------|
A|------3--5---3-------------------------------------------------------------|
E|---------3-----------------------------------------------------------------|

The song ends with the keyboard/synth part fade out.


Thanks for searching my tab! Sorry I didn't tab out the solos, I'm obivously not good 
Sorry if I forgot anything else.
Rock on!
Related for You Wont Change Me tab
Advertisement will be closed in 10 seconds