Song name
# A B C D E F G H I J K L M N O P Q R S T U V W X Y Z

Black Sabbath - Lukes Wall tab

Black Sabbath - Luke's Wall
Album: Paranoid
Standard tuning (eadgbe)

So this is a part of the song War Pigs which is called Luke's Wall. Lukes Wall begins at 
of War Pigs. I don't know the solo but here's everything else. Enjoy!

|------------------------------------|
|------------------------------------|
|----------7------------7-----7------|
|----9-----------9---------9---------| x2
|-7-----7-----7-----7----------------|
|------------------------------------|

|---------------------|
|---------------------|
|-9-----7---7-7-7-----|
|-9--9--7---7-7-7-----|
|-7--9--5---5-5-5-----|
|----7----------------|

|------------------------------------|
|------------------------------------|
|----------7------------7-----7------|
|----9-----------9---------9---------|
|-7-----7-----7-----7----------------|
|------------------------------------|

|---------------------|
|---------------------|
|-9--12---9---9-------|
|-9--12---9---9-------|
|-7--10---7---7-------|
|---------------------|

|------------------------------------|
|------------------------------------|
|----------7------------7-----7------|
|----9-----------9---------9---------|
|-7-----7-----7-----7----------------|
|------------------------------------|

|---------------------|
|---------------------|
|-9-----7---7-7-7-----|
|-9--9--7---7-7-7-----|
|-7--9--5---5-5-5-----|
|----7----------------|

|------------------------------------|
|------------------------------------|
|----------7------------7-----7------|
|----9-----------9---------9---------|
|-7-----7-----7-----7----------------|
|------------------------------------|

|---------------------|
|---------------------|
|-9-----9---9-9-9-----|
|-9--9--9---9-9-9-----|
|-7--9--7---7-7-7-----|
|----7----------------|

|------------------------------------|
|------------------------------------|
|----------7------------7-----7------|
|----9-----------9---------9---------| x4
|-7-----7-----7-----7----------------|
|------------------------------------|

|------------------------------------|
|------------------------------------|
|----------5------------5-----5------|
|----7-----------7---------7---------|
|-5-----5-----5-----5----------------|
|------------------------------------|

|------------------------------------|
|------------------------------------|
|----------3------------3-----3------|
|----5-----------5---------5---------| x2
|-3-----3-----3-----3----------------|
|------------------------------------|

|---------------------|
|---------------------|
|-4--5--5--4----------|
|-4--5--5--4----------|
|-2--3--3--2----------|
|---------------------|

Solo starts here!

|------------------------------------|
|------------------------------------|
|----------7------------7-----7------|
|----9-----------9---------9---------| x5
|-7-----7-----7-----7----------------|
|------------------------------------|

|--------|
|--------|
|---9----|
|---9----|
|---7----|
|--------|
Tap to rate this tab
# A B C D E F G H I J K L M N O P Q R S T U V W X Y Z