Song name
# A B C D E F G H I J K L M N O P Q R S T U V W X Y Z

Black Sabbath - Symptom Of The Universe tab

-------------------------------------------------------------------------------
			     Symptom Of The Universe - Black Sabbath
-------------------------------------------------------------------------------
Tabbed by: Jordan Wolf
Email: skateboarder6732@cs.com

Tuning:standard
intro
e|----------------------------------------------------------------------------|
B|----------------------------------------------------------------------------|
G|----------------------------------------------------------------------------|
D|----------------------------------------------------------------------------|    
A|------------------8----8-------------------9-8--x4--------------------------|
E|-0-0-0-0-0-0-0-0--6----6--0-0-0-0-0-0-0-0--7-6------------------------------|
verse 1
e|-------------|--------------------------------------------------------------|
B|-------------|--------------------------------------------------------------|
G|-------------|--------------------------------------------------------------|
D|-7-----------|--------------------------------------------------------------|
A|-5--8--7--x2-|----------------------8-------------------9-8--x6-------------|
E|----6--5-----|-----0-0-0-0-0-0-0-0--6--0-0-0-0-0-0-0-0--7-6-----------------|
verse 2
e|-------------|--------------------------------------------------------------|
B|-------------|--------------------------------------------------------------|
G|-------------|--------------------------------------------------------------|
D|-7-----------|--------------------------------------------------------------|
A|-5--8--7--x2-|--------------------8-------------------9-8--x6---------------|
E|----6--5-----|---0-0-0-0-0-0-0-0--6--0-0-0-0-0-0-0-0--7-6-------------------|
interlude
e|-------------|--------------------------------------------------------------|
B|-------------|--------------------------------------------------------------|
G|-------------|-----2---0----------------------------------------------------|
D|-7-----------|-------4---2-4-0-2---0----------------------------------------|
A|-5--8--7---x2|-------------------4---2-4-0-2-0---8------x8------------------|
E|----6--5-----|-----------------------------------6--------------------------|
verse 3
e|-------------|--------------------------------------------------------------|
B|-------------|--------------------------------------------------------------|
G|-------------|--------------------------------------------------------------|
D|-7-----------|--------------------------------------------------------------|
A|-5--8--7--x2-|--------------------8------------------9-8--x6----------------|
E|----6--5-----|----0-0-0-0-0-0-0-0-6--0-0-0-0-0-0-0-0-7-6--------------------|
interlude
e|-------------|--------------------------------------------------------------|
B|-------------|--------------------------------------------------------------|
G|-------------|---2-0--------------------------------------------------------|
D|-7-----------|----4-2-4-0-2-0-----------------------------------------------|
A|-5--8--7--x2-|-------------4-2-4-0-2-0---8----x8----------------------------|
E|----6--5-----|---------------------------6----------------------------------|
bridge
e|----------------------------------------------------------------------------|
B|----------------------------------------------------------------------------|
G|--------------------------------------------5-3-2---------------------------|
D|-------------------------------------0-2-3--------5-3-2---x4----------------|
A|-------------------------------0-2-3----------------------------------------|
E|-x-2-2-2--2-2-2--2-2-2--2-2-2-----------------------------------------------|
during solo
e|------------------------------------|------------5--4-+---------------------|
B|------------------------------------|-------5----5--5-----------------------|
G|------------------------------------|-------5h6----------x42----------------|
D|------------------------------------|---------------------------------------|
A|-------------------------7--9---x6--|---------------------------------------|
E|-x-2-2-2--2-2-2--2-2-2---5--7-------|--0h1----------------------------------|
     

| /  slide up
| \  slide down
| h  hammer-on
| p  pull-off
| ~  vibrato
| +  harmonic
| x  Mute note
===============================================================================

Tap to rate this tab
 
# A B C D E F G H I J K L M N O P Q R S T U V W X Y Z