Song name
# A B C D E F G H I J K L M N O P Q R S T U V W X Y Z

Black Sabbath - Sick And Tired tab

Sick And Tired
Black Sabbath - Forbidden (1995)


|----------------------------------------------------------|
|----------------------------------------------------------|
|-----------9---9-------9------------9---9-------9---------|
|---5\4-2---9---9-------9----5\4-2---9---9-------9---------|
|---5\4-2---7---7----7--7----5\4-2---7---7----7--7---------|
|-0-3\2-0------------0-----0-3\2-0------------0------------|

|----------------------------------------------------------|
|----------------------------------------------------------|
|-----------9---9-------9-----------/7-7---5---5-5---------|
|---5\4-2---9---9-------9----5\4-2--/7-7---5---5-5---------|
|---5\4-2---7---7----7--7----5\4-2--/5-5---3---3-3---------|
|-0-3\2-0------------0-----0-3\2-0-------------------------|

"got no time to be on the road"
|-----------------------------------------------------------|
|-------5-----4---------------------5p4-------5-----4-------|
|---------6------4----------------------4-------6------4----|
|-----------6-------4--2----2--4--4---------------6-------4-|
|-3-4-4----------------0----0--2--2-------4-4---------------|
|-----------------------------------------------------------|and so on

|----------------------------------------------------------|
|-----5-----4----------------------------------------------|
|-------6------4----2-2-2-2-2-2-4-4-4-4-4-4----------------|
|---------6-------4-2-2-2-2-2-2-4-4-4-4-4-4----------------|
|-4-4---------------0-0-0-0-0-0-2-2-2-2-2-2----------------|
|----------------------------------------------------------|

Fills:
|-----------------------------------------------------10^p7-10^-7-|
|-^8---------------8^------------10^--8-10^-8---10p8--------------|
|-------9------7h9-------9----7h9--------------------9------------|
|-----------------------------------------------------------------|
|-----------------------------------------------------------------|
|-----------------------------------------------------------------|
"so many promises..." "i forgive, but i cant"
|------9-7----------||-9p7---7^---9p7---7-7^-||------------|
|-7^-------7^p5-7---||-----9----------9------||------------|
|-----------------6-||-----------------------||------------|
|-------------------||-----------------------||------------|
|-------------------||-----------------------||------------|
|-------------------||-----------------------||------------|

"im tired of you..."
|----------12-------------------------------------------------------------------|
|-15^-15^-----12-15-------------------------15^p12-15^-15^-15-12----15-12-------|
|----------------------14^-14-12---12----------------------------14-------14-12-|
|-------------------14----------------14-12-------------------------------------|
|-------------------------------------------------------------------------------|
|-------------------------------------------------------------------------------|
"sick and tired of it all..."
|----17^----17^-17^-------17^-----17^---12-15-12--------------|
|-17---------------(15)h17-----17----------------15-12-15-15^-|
|-------------------------------------------------------------|
|-------------------------------------------------------------|
|-------------------------------------------------------------|
|-------------------------------------------------------------|

End: goes w/ "Im sick and tired..."
|----------------------------------------------------------|
|-----------------(release)--------------------------------|
|--14^--14--12-14^-----------\-\---------------------------|
|---------------------------------\-\----------------------|
|--------------------------------------\-\---(echo)--------|
|------------------------------------------x---------------|
Tap to rate this tab
# A B C D E F G H I J K L M N O P Q R S T U V W X Y Z