Song name
# A B C D E F G H I J K L M N O P Q R S T U V W X Y Z

Black Sabbath - Kiss Of Death tab

Kiss Of Death
Black Sabbath - Forbidden (1995)


|-------0-----2---------0-----2----------0---------------3-2h3p2------|
|-----0---0-----0-----0---0-----0------5---5---------5-----------5----|
|---4-------4-------4-------4--------4-------4-----4---4-----------4--|
|-2---------------2---------------/5-----------4/5--------------------|
|---------------------------------------------------------------------|
|---------------------------------------------------------------------|

                                         **2**      **3**
|------------------------------------||-----------||-------||
|------------------------------------||-----------||-------||
|--9-9-----11-11/12-12/14-14/16--9-9-||-----------||-7-7-7-||
|--9-9-----11-11/12-12/14-14/16--9-9-||-9p7----7^-||-7-7-7-||
|--7-7------9--9/10-10/12-12/14--7-7-||-----10----||-------||
|------------------------------------||-----------||-------||

"you try to touch me..."
|------------------------------------------------------------------|
|------------------------------------------------------------------|
|-----4---5-----5-----4----------------4---5-----5-6-----6-5-----5-|
|-------------5-----------7--------------------5-------5-------5---|
|---7---7---7-------7---7---9\7-5----7---7---7-------7-------7-----|
|-0---------------0----------------0-------------------------------|

|---------0-----0--7\----1---1-----------------------------|
|-------0---0------8\----1-----1---------------------------|
|-----5-------5----7\----2-------2-------------------------|
|---7--------------0\----3---------------------------------|
|-0--------------------------------------------------------|
|----------------------------------------------------------|

"nothing you can do will hurt me..."
|--------------------------------------------------------|
|--------------------------------------------------------|
|-7/9-----14-13-12--5----7/9--7--------------7/9---------|
|-7/9-----14-13-12--5----7/9--7-----5-5-5-5--7/9---------|
|-5/7-----12-11-10--3----5/7--5-----5-5-5-5--5/7---------|and so on
|-----------------------------------3-3-3-3--------------|

|-----------------------------/12----------------------------/12-|
|-----------------------------/12----------------------------/12-|
|-----------------------------/12----------------------------/12-|
|-----------------------------/12----------------------------/12-|
|----------------------------------------------------------------|
|-0--3/5-6--5--3--3h5--3---0------0--3/5-6--5--3--3h5--3---0-----|
Tap to rate this tab
# A B C D E F G H I J K L M N O P Q R S T U V W X Y Z