Song name
# A B C D E F G H I J K L M N O P Q R S T U V W X Y Z

Black Sabbath - Who Are You tab

Help us improve GuitareTab! Take a short survey!
Artist:    Black Sabbath
Song:      Who Are You?
Album:     Sabbath, Bloody Sabbath
Tabbed by: xHellbound

This is my first tab, enjoy. This song was entirely written by Ozzy.



...into the dust...


h - hammer-on
p - pull-off
^ - bend

Gtr I   - 'Distortion/Phaser'
Gtr II  - 'Distortion/Flange'
Gtr III - 'Distortion/Rotary'


Intro

 Gtr I
|-------------------------|-------------------------|
|-------------------------|-------------------------|
|-------------------------|-------------------------|
|------6-5-------6-5-6-5--|------6-5-------6-5-6-5--|
|--5^--------5^-----------|--5^--------5^-----------|
|-------------------------|-------------------------|
|Gtr II
|-------------------------|-------------------------|
|-------------------------|-------------------------|
|-------------------------|-------------------------|
|-------------------------|------6-5-------6-5-6-5--|
|-------------------------|--5^--------5^-----------|
|-------------------------|-------------------------|

 Gtr I, II
|-------------------------|-------------------------|
|-------------------------|-------------------------|
|-------------------------|-------------------------|
|------4-3-------4-3-4-3--|------4-3-------4-3-4-3--|
|--3^--------3^-----------|--3^--------3^-----------|
|-------------------------|-------------------------|



Riff 1

 Gtr I, II
|-------------------------|-------------------------|
|-------------------------|-------------------------|
|-------------------------|-------------------------|
|------6-5-------6-5-6-5--|------6-5-------6-5-6-5--|
|--5^--------5^-----------|--5^--------5^-----------|
|-------------------------|-------------------------|

|-------------------------|-------------------------|
|-------------------------|-------------------------|
|-------------------------|-------------------------|
|------4-3-------4-3-4-3--|------4-3-------4-3-4-3--|
|--3^--------3^-----------|--3^--------3^-----------|
|-------------------------|-------------------------|



Riff 2

 Gtr I, II
|--------------------|
|--------------------|
|--------------------|
|--------------------|
|--3---3---3--5-5-5--|
|--------------------|



Solo

 Gtr I
|--10----10-13--------------|--10----10-13--------------|
|--------------13----12-10--|--------------13----12-10--|
|---------------------------|---------------------------|
|---------------------------|---------------------------|
|---------------------------|---------------------------|
|---------------------------|---------------------------|

|----------10-13--|------8-9--10h12p10--|
|--12---13--------|--10-----------------|
|-----------------|---------------------|
|-----------------|---------------------|
|-----------------|---------------------|
|-----------------|---------------------|

|-----13----10--|-----13----10--|-----13----10--|-----13-----|
|--13----13-----|--13----13-----|--13----13-----|--13----13--|
|---------------|---------------|---------------|------------|
|---------------|---------------|---------------|------------|
|---------------|---------------|---------------|------------|
|---------------|---------------|---------------|------------|



Riff 3

 Gtr I
|-------------------------|-------------------------|
|-------------------------|-------------------------|
|-------------------------|-------------------------|
|------6-5-------6-5-6-5--|------6-5-------6-5-6-5--|
|--5^--------5^-----------|--5^--------5^-----------|
|-------------------------|-------------------------|
|Gtr II
|-------------------------|-------------------------|
|-------------------------|-------------------------|
|-------------------------|-------------------------|
|-------------------------|------6-5-------6-5-6-5--|
|-------------------------|--5^--------5^-----------|
|-------------------------|-------------------------|

 Gtr I, II
|-------------------------|----------------------------|
|-------------------------|----------------------------|
|-------------------------|----------------------------|
|------4-3-------4-3-4-3--|------4-3---4--3---4-3-4-3--|
|--3^--------3^-----------|--3^------------------------|
|-------------------------|----------------------------|



Outro

 Gtr I, II, III
|--------------------|
|--------------------|
|--------------------|
|--------------------|
|--3---3---3--5-5-5--|
|--------------------|


 Gtr I, III
|----------------|
|----------------|
|----------------|
|----------------|
|--3-3---3----3--|
|----------------|



Intro
Riff 1 x2
Riff 2 x2
Riff 1 x3
Riff 2 x2
Solo
Riff 3 x1
Riff 1 x2
Riff 2 x2
Outro
Related for Who Are You tab