Song name
# A B C D E F G H I J K L M N O P Q R S T U V W X Y Z

Black Sabbath - Danger Zone tab

Black Sabbath - Seventh Star - Danger Zone

Tuning is half a step down

Slide up: /
Vibrato: ~
P.M. - - -|: Palm Mute - - -End

Riff 1 (part 1)                                     
d#|----------------------------------------------------------|
A#|----------------------------------------------------------|
F#|-----5-----2-----4--4-4---------------5-----2-----4-4-4---|
C#|-----7-----3-----5--5-5---------------7-----3-----5-5-5---|
G#|-0-0---0-0---0-0--------------5/6-0-0---0-0---0-0---------| Repeat 3x
D#|------------------------0-3/4-----------------------------|

Riff 1 (part 2)
|----------------------------------------------------------|
|----------------------------------------------------------|
|---------------5-----2-----4--4-4---9-7-5--5-----5-----5--|
|---------------7-----3-----5--5-5--10-9-7--7-----7-----7--|
|-------5/6-0-0---0-0---0-0-------------------0-0---0-0----|
|-0-3/4----------------------------------------------------|

                                    
|------------------------------------------------------|
|------------------------------------------------------|
|-----4-5-7-7-7-7-7-7-7-7-7-7-7-7-7-7-7-7--------------|
|-7-7-----7-7-7-7-7-7-7-7-7-7-7-7-7-7-7-7--------------| Go back to (part 1)
|---------5-5-5-5-5-5-5-5-5-5-5-5-5-5-5-7---3~--2~-----| Repeat 2x
|---------------------------------------------------3~-|
         P.M. - - - - - - - - - - - - - -|

Riff 2:
|----------------------------------------------------------|
|----------------------------------------------------------|
|----------------------------------------------------------|
|--7--7--7---5--7--9--10--7--------------------------------|
|--5--5--5-0-3--5--7---8--5---3--3--5-5-5-5-5-5------------|
|-----------------------------1--1--3-3-3-3-3-3------------|

|----------------------------------------------------------|
|----------------------------------------------------------|
|----------------------------------------------------------|
|-2-2-------------------------2-2--------------------------|
|-0-0-------------0-2-3---2---0-0-------------0-2-3---2----|
|-----3-2-3-222-3-------3---3-----3-2-3-222-3-------3---3--|

Riff 3
|---------------------------------------------------|
|---------------------------------------------------|
|---------------------------------------------------|
|---------------------------------------------------|
|--3-3-3-3-3-3-3-3-3-3-3-3-7-7-7-7-7-7-7-7-7-7-7-7--|
|--1-1-1-1-1-1-1-1-1-1-1-1-5-5-5-5-5-5-5-5-5-5-5-5--|
Slight P.M. - - - - - - - - - - - - - - - - - - -|

|-----------|
|-----------|
|----5------|
|--3-5-5-7--|
|--3-3-5-7--| Go Back to Riff 1 (part 1
|--1---3-5--|
Tap to rate this tab
 
# A B C D E F G H I J K L M N O P Q R S T U V W X Y Z