Song name
# A B C D E F G H I J K L M N O P Q R S T U V W X Y Z

Black Sabbath - Night Wing tab

BLACK SABBATH - NIGHT WING
ALBUM HEADLESS CROSS
TAB BY YOYO




|-----------1-0h1p0---------------------------0-----|
|--------3-----------3------------0--------------3--|
|-----2-----------------2------------0--------------|
|--0---------------------------0-----------2--------|   FADE IN INTRO
|---------------------------1-----------3-----------|   CLEAN GUITAR 
|---------------------------------------------------|   VERSE


                            

|---------------------------------------------------|
|-------3-----------3-------------------------------|
|----------0-----------0----------------------------|   PRE-BRIDGE
|----0-----------0--------0-------------------------|
|--1----------1--------------1----------------------|
|---------------------------------------------------|







|---------------------------------------------------|
|---------------------------------------------------|
|---------------------------------------------------|
|-----7-----6-----5---------6-7-6-7-----------------|   BRIDGE
|--0-----0-----0-----0--7-8---------8---------------|   HEAVY GUITAR
|---------------------------------------------------|




|---------------------------------------------------|
|---------------------------------------------------|
|---------------------------------------------------|
|--7-7-7---10-10--9-7-5---2-5-----------------------|   CHORUS
|--5-5-5---8--8---7-5-3---0-3-----------------------|   HEAVY GUITAR
|---------------------------------------------------|


THIS IS HOW I PLAY IT, AND WITH MY MATE SINGING IT WORKS!!

JUST LISTEN TO SONG FOR TIMING.
Tap to rate this tab
# A B C D E F G H I J K L M N O P Q R S T U V W X Y Z