Song name
# A B C D E F G H I J K L M N O P Q R S T U V W X Y Z

Black Sabbath - Fairies Wear Boots tab

The tabs I found for this song sounded mostly bad at the solos, so I tabbed them
myself.

Legend:
^=bend up
^v=bend up then back down
\=slide down
/=slide up
~=vibrato
h=hammer on
p=pull off

Solo 1 - 0:51

e|-------------9----------------12^-12^~--12-9------9--------------9-------|
B|-----------9---12--12^~--12-9----------------9-12---12-9-9-----9---12----|
G|------9-11^------------------------------------------------11^-------11^~|
D|-9h11--------------------------------------------------------------------|
A|-------------------------------------------------------------------------|
E|-------------------------------------------------------------------------|

e|------------9--------------------------------9---------------------------|
B|--------------9-12-9-----------------------9---12-9----------------------|
G|-11^~--11^-----------11^vp9-11p9-----9-11^----------11^-9----------------|
D|---------------------------------11--------------------------------------|
A|-------------------------------------------------------------------------|
E|-------------------------------------------------------------------------|

Solo 2 - 2:59

e|------15---------------------18^-18^-15-18p15----18p15-------------------|
B|---15----18^-18^-18^-18^~-15------------------18-------18-18p15------15--|
G|17^------------------------------------------------------------17-17^----|
D|-------------------------------------------------------------------------|
A|-------------------------------------------------------------------------|
E|-------------------------------------------------------------------------|
                                      very slight bend
                                             v        *
e|15----------------------15-----------------------------------------------|
B|15-18p15-------------15-15-18p15-----------3^----------------6---3---3---|
G|----------17-15--17^-------------17-15\----3^--------3-5/7-7-7-5-5-5-3---|
D|----------------------------------------------5-3-5----------------------|
A|-------------------------------------------------------------------------|
E|-------------------------------------------------------------------------|
                                      *         Outro - 5:42
                                                             repeat
e|--------------------------------------------------|----------------------|
B|------6---3--------6----------------6-------------|--10-11----10---------|
G|5/7-7-7-5-5-3--5/7-7-7--5--5-3--5/7-7-7-5-3-5p3---|--------12----10-12---|
D|------------------------------------------------5-|----------------------|
A|--------------------------------------------------|----------------------|
E|--------------------------------------------------|----------------------|

Note: Try mixing around the licks between the *s until it sounds right for
you. It sounds a little sloppy to me so I can't much tell the difference.
Tap to rate this tab
 
# A B C D E F G H I J K L M N O P Q R S T U V W X Y Z