Song name
# A B C D E F G H I J K L M N O P Q R S T U V W X Y Z

Black Sabbath - Sabbath tab

Help us improve GuitareTab! Take a short survey!
-------------------------------------------------------------------------------
			     Sabbath - Misery Ink.
-------------------------------------------------------------------------------

By: Robert A. Grimes Jr.

Intro:
e|-------------------------------|
B|-------------------------------|
G|-------------------------------|
D|-2-2-2---3-3-3---5-5-5---6-6-6-|  Play 2x
A|-2-2-2---3-3-3---3-3-3---4-4-4-|
E|-0-0-0---1-1-1---0-0-0---0-0-0-|

Verse:
e|-----------------------------------------|
B|-----------------------------------------|
G|-----------------------------------------|
D|-----5---4-----5---4-----5---4-----5---4-|  Play 2x
A|-------3---------3---------3---------3---|
E|-0-----------0---------0---------0-------|

Pre Chorus:
e|-------------------------------------|
B|-------------------------------------|
G|-------------------------------------|
D|-------------------------------------|
A|-2-2-2-2-2-2-3-3-3-3-3-3-4-4-4-4-4-4-|  Play 1x
E|-0-0-0-0-0-0-0-0-0-0-0-0-0-0-0-0-0-0-|

Chorus:
e|-------------------------------|
B|-------------------------------|
G|-------------------------------|
D|-2-2-2---3-3-3---5-5-5---6-6-6-|  Play 2x
A|-2-2-2---3-3-3---3-3-3---4-4-4-|
E|-0-0-0---0-0-0---0-0-0---0-0-0-|

This is our first time writing tabs, it is one of our songs
 the first one we have put to music so far.  If you have
 any tips on how to make it better, please e-mail us at MiseryInk@netscape.net

                                           Thank You..
Related for Sabbath tab