Song name
# A B C D E F G H I J K L M N O P Q R S T U V W X Y Z

Black Sabbath - Snowblind tab

Black Sabbath
Snowblind

Tuning: C#-Db

Riff 1
|-------------------------------------|---------0-------------2-2-------|
|-------------------------------------|-------1---1---------3-----3-----|
|-------------------------------------|-----0-------0-----2---------2---|
|-9--11--12---(12)\--7--(7)/-9--------|---2-----------2-0-------------0-|
|-7---9--10---(10)\--5--(5)/-7--7\-0--|-3-------------------------------|
|-------------------------------------|---------------------------------|

Riff 2
|----------------------------|
|----------------------------|
|----------------------------|
|-9---9----9-----7-7------5--|
|-7---7--0-7---0-5-5--5h7----|
|----------------------------|

Riff 3
|-------------------------------0-|--------------------------------|
|-----------------------1-----3---|-----------------------1-----3--|
|---------------------0-----2-----|---------------------0-----2----|
|-------------------2-----0-------|-------------------2-----0------|
|-5h7-5-4------0--3---------------|-5h7-5-4------0--3--------------|
|---------5--6\-------------------|---------5--6\------------------|

Riff 4
|------------------------------------------------|
|------------------------------------------------|
|------------------------------------------------|
|----------12-14----------------12---------11----|
|----14-14-------14-12-------12----12---11----11-|
|-12-------------------12-10----------9----------|

|-----------------------------------------|
|-----------------------------------------|
|-----------9------------------9----------|
|--------10---10------------10---10-------|
|---10----------10-----10-----------10----|
|-8----8-----------8-7----7------------7--|

Solo
|-------------------------12----------------------|
|-12h15--15b-15b-15b-15b-----15-12----------------|
|----------------------------------15-14-12-------|
|-------------------------------------------12\-0-|
|-------------------------------------------------|
|-------------------------------------------------|

|----------------------------------------------|
|----------------------------------------------|
|-----0-2--2b-2b-2brp0--0-2---------0-----0----|
|-0-2-----------------------2---0-2---2-----2--|
|----------------------------------------------|
|----------------------------------------------|

|------------------------------------------------|
|------------------------------------------------|
|-----0-2--2b-2brp0-0--2brp0-0-2--------0----0---|
|-0-2----------------------------2--0-2---2----2-|
|------------------------------------------------|
|------------------------------------------------|

|---------------------------------------12----------------|
|----------------------15b-15b-15b-15b-----15-12----------|
|-----0-2--2b-2brp0-0----------------------------15-14-12-|
|-0-2-----------------------------------------------------|
|---------------------------------------------------------|
|---------------------------------------------------------|

|-15b--12---------12---------------------|
|---------15-15b-----15-12---------------|
|--------------------------15-14-12------|
|-----------------------------------14\--|
|----------------------------------------|
|----------------------------------------|

Riff 5
|-------------------------------------------------|
|-------------------------------------------------|
|-------------------------------------------------|
|--------------------------------------7--7--7-7--|
|-7-7-10--10-7--7-10--10-7--7-10--10-5-5--5--5-5--|
|-------------------------------------------------|

Outro Solo
|-12-12-12------------------------------------------------|
|-----------15b--pb17-pb17-pb17--pb17-pb17-pb17--15b17r15-|
|---------------------------------------------------------|
|---------------------------------------------------------|
|---------------------------------------------------------|
|---------------------------------------------------------|

   trill
|-12-(15)~~--------------------------------------------------|
|------------15b17--pb17-pb17-pb17--pb17-pb17-pb17--15b17r15-| 
|------------------------------------------------------------|
|------------------------------------------------------------|
|------------------------------------------------------------|
|------------------------------------------------------------|

   trill
|-12-(15)~~----------------------------------------9---11---|
|------------10/12--12-12-12-12-12-12--(12)\--/12-12b--14b--|
|-----------------------------------------------------------|
|-----------------------------------------------------------|
|-----------------------------------------------------------|
|-----------------------------------------------------------|

|---------------------------------------------------------------|
|-15b17-15b17--pb17-pb17-pb17--15b17--pb17-pb17-pb17--pb17-pb17-|
|---------------------------------------------------------------|
|---------------------------------------------------------------|
|---------------------------------------------------------------|
|---------------------------------------------------------------|

|---------------------------------------------------------|
|-/12-12\-------------------------------------------------|
|---------14-14-14p12----14b16-14-12-----14p12-12p9--14b--|
|---------------------14-------------14-------------------|
|---------------------------------------------------------|
|---------------------------------------------------------|

|----12--------------------------------12-----12--------|
|-15----15-15b--17p15-15p12-12-10--15b----15b----15b-15-|
|-------------------------------------------------------|
|-------------------------------------------------------|
|-------------------------------------------------------|
|-------------------------------------------------------|

      X 19           trill   trill     trill   X 3
|--------12-|------------------------|---------12-|
|-----12----|-12-15--12(15)--15(17)--|-12(15)-----|
|-14b-------|------------------------|------------|
|-----------|------------------------|------------|
|-----------|------------------------|------------|
|-----------|------------------------|------------|

              trill                    trill   
|-------------12(15)----------15p12h15---------15p12h15-|
|-12h15p12h15---------12(15)-----------12(15)-----------|
|-------------------------------------------------------|
|-------------------------------------------------------|
|-------------------------------------------------------|
|-------------------------------------------------------|

  trill   trill                                 
|---------12(15)--15b-15b17r15p12----12-12-------------|
|-12(15)--------------------------15-------15b17-15b17-|
|------------------------------------------------------|
|------------------------------------------------------|
|------------------------------------------------------|
|------------------------------------------------------|

|-------------------------------------------------------------------|
|-15b17-pb17-15b17-pb17-15b17-pb17-15b17-pb17-15b17-pb17-15b17-pb17-|
|-------------------------------------------------------------------|
|-------------------------------------------------------------------|
|-------------------------------------------------------------------|
|-------------------------------------------------------------------|

|-15b17-pb17--15\-----12-12h15p12-----------------------------|
|------------------15-------------15-12h15p12-----------------|
|---------------------------------------------14-12h14p12-----|
|---------------------------------------------------------14--|
|-------------------------------------------------------------|
|-------------------------------------------------------------|

|-----------------------------------------------------------|
|-------------15b17-pb17~-17-15-12-------15b17-------15b17--|
|-14b16-pb16-----------------------14b16-------14b16--------|
|-----------------------------------------------------------|
|-----------------------------------------------------------|
|-----------------------------------------------------------|

Riff 1 X2
Riff 2 X6
Riff 3 X1
Riff 2 X6
Riff 3 X1
Riff 1 X2
Riff 4 X5
Riff 4 X4  w/Solo 
Riff 2 X6
Riff 3 X1
Riff 5 X8
Riff 3 X1
Riff 2 X6
Riff 2 X16 w/Outro Solo
Tap to rate this tab
# A B C D E F G H I J K L M N O P Q R S T U V W X Y Z