Song name
# A B C D E F G H I J K L M N O P Q R S T U V W X Y Z

Black Sabbath - When I Came Down tab

-------------------------------------------------------------------------------
			     When I Came Down(INTRO) - Black Sabbath
-------------------------------------------------------------------------------
Tabbed by: Guitar_tischler
Email: tomtischler@gmail.com

Tuning:

e|----------------------------------------------------------------|
B|-----------------------------6----------------------------------|
G|-----3-5b-----3-5b-5br----3-5--5-5-3---------5-5--7-7--5-5--7-7-|
D|-3-5------3-5----------3-5----------5-3-5----5-5--7-7--5-5--7-7-|
A|---------------------------------------------3-3--5-5--3-3--5-5-|
E|----------------------------------------------------------------|

e|-----------------------------------------------------------------------------------|
B|-------6---------------------------------------------------------------------------|
G|----3-5--5-5-3---------------------------------------------------------------------|
D|3-5------------5-3-5---------------------------------------------------------------|
A|-----------------------------------------------------------------------------------|
E|-----------------------------------------------------------------------------------|

Questions/suggestions? Feel free to mail me.

| /  slide up
| \  slide down
| h  hammer-on
| p  pull-off
| ~  vibrato
| +  harmonic
| x  Mute note
===============================================================================
Tap to rate this tab
# A B C D E F G H I J K L M N O P Q R S T U V W X Y Z