Guitaretab - guitar tabs
Song name
# A B C D E F G H I J K L M N O P Q R S T U V W X Y Z

Black Sabbath - War Pigs tab

Artist: Black Sabbath
Song: War Pigs
Album: Paranoid

Intro
E |------------------------------------------------------|
B |------------------------------------------------------|
G |------------------------------------------------------|
D |-----------------9--7-------6h7-6h7--6----------------|
A |-5h7--------5/7--7--5-------7---7----7----------------|
E |-0----------0----0----------0---0----0----------------|


E |------------------------------------------------------|
B |------------------------------------------------------|
G |------------------------------------------------------|
D |-7/9--9----------6h7-6h7-9~~~~7/9--9-----------------|
A |-5/7--75~~~~~~--7---7----7----5/7--7-5~~~~~~~--------|
E |-0---------------0---0----0----0----------------------|


E |------------------------------------------------------|
B |------------------------------------------------------|
G |------------------------------------------------------|
D |------------------------------------------------------|
A |-7p5-7p5-5-7-7~~~~~-5-5/7~~~~~~~-7-7/5~~~~~~----------|
E |-0---0-----0-0------0-0----------0-0------------------|

This is the way Iommi plays this riff
E |-------]--------]---------------------]----12---------|
B |-------]after-a-few-repeats-play-in-between12b--------|
G |repeat-]-4p2p0--]---------------------]----12b--------|
D |-------]------2-]-0h2p0h2p0h2p0h2p0h2-]---------------|
A |-12-14-]--------]---------------------]---------------|
E |-10-12-]--------]---------------------]---------------|

Then play
E |-repeat]all-and-play-these-riffs-in-between----]------|
B |-------]----------------]-----]----------------]------|
G |-------]----------------]-12b-]----------------]-12b--|
D |-------]----------------]-----]-12h14p12h14p12-]------|
A |-12-14-]-17-16-15----14-]-----]----------------]------|
E |-10-12-]-15-14-13----12-]-----]----------------]------|


E |-------------------------]----------------------------|
B |----------12b/-----------]----------------------------|
G |----------12b/-----------]----------------------------|
D |-------------------------]---------2p0--------2p0-----|
A |-------------------------]----------------------------|
E |-0-0-0-0--------0-0--0-3-]-0-0-0-0-----0-0--0-----3---|
           Pm[________]     [_______]  [________]   [______]
Solo 1:
E |-----------guitar-1-----------------------------------|
B |------------------------------------------------------|
G |------------------------------------------------------|
D |------------------------------------------------------|
A |---11/12-12/11-11/7---7/5-5/7~~~~~~~~~~~~~~~~---------|
E |-0------------------0---------0-----------------------|


E |-----------guitar-1-----------------------------------|
B |------------------------------------------------------|
G |------------------------------------------------------|
D |------------------------------------------12h14-14----|
A |---5/7-7/5---11/7-12/11-11/12-12/1412h14-------------|
E |-0---------0------------------------------------------|


E |-----------guitar-1----------12-------12------12------|
B |-----------------------------12-----12------12--------|
G |-------------12------------------14b-----14b----------|
D |-------12h14-----------12h14--------------------------|
A |-12h14-----------12h14--------------------------------|
E |------------------------------------------------------|


E |------------guitar 2---------12-------12------12------|
B |-----------------------------12-----12------12--------|
G |---------------------------------14b-----14b----------|
D |------------------------------------------------------|
A |------------------------------------------------------|
E |------------------------------------------------------|


E |------12----guitar-1--12-----------12-----------------|
B |----12----15b15b~~~~----15-12-15b---15-12-15b--------|
G |-14b--------------------------------------------------|
D |------------------------------------------------------|
A |------------------------------------------------------|
E |------------------------------------------------------|


E |------12----guitar-2--12------------------------------|
B |----12----15b-15b~~~~---15-12--------------15-12~~~~--|
G |-14b-------------------------14b-12h14p12-------------|
D |------------------------------------------------------|
A |------------------------------------------------------|
E |------------------------------------------------------|


E |------------guitar-1-----------12----15-15b~~~~-15b--------------|
B |-15p1215p1215p12---12----------15b-----------------------------|
           G |-----14----14-----14----14b~~~------------------------|
D |-----------------------------------------------------------------|
A |-----------------------------------------------------------------|
E |-----------------------------------------------------------------|


E |------------guitar-2-----------------------------------|
B |------12-------15p12-----15p12-------------------------|
G |-14---14b~~~14------14p12-----14b~~12h14p12--14--------|
D |-------------------------------------------12--12-12---|
A |----------------------------------------------------14-|
E |-------------------------------------------------------|


E |-15b---15b----15b-12-guitar-1-------------------------|
B |--------------15b---15-12---12-15-15p12---------------|
G |-------------------------14b12---------14-p12---------|
D |----------------------------------------------14~~~---|
A |------------------------------------------------------|
E |------------------------------------------------------|


E |------------guitar-2-------------------12-------------|
B |-----------------------------------------15p12--------|
G |-----------------------------14b-12-14b--------14~~~~-|
D |-12--------------------12----14b----------------------|
A |---------14/12-1012h14-------------------------------|
E |------------------------------------------------------|


E |-----------guitar-1-----------------------------------|
B |-15p12------------------------------------------------|
G |-------14-14b---12------------------------------------|
D |-------------------14p12-14---------------------------|
A |---------------------------14---10h12-10-----14-------|
E |-----------------------------------------10--12-------|


E |------------guitar-2---12-----------------------------|
B |---------------------15---15-12-----------------------|
G |-12--14b-12b-------------------14b~~~~14-12-----------|
D |-------------14p12h14---------------------------------|
A |------------------------------------------------5h7---|
E |------------------------------------------------0-----|


E |-------------guitar-1---------------------------------|
B |------------------------------------------------------|
G |-9b----9b-----9b-----9b------7-------7--9--7----------|
D |---------------------------------9--------------------|
A |------------------------------------------------------|
E |------------------------------------------------------|


E |-------------guitar-2---------------------------------|
B |------------------------------------------------------|
G |-9b----9b-----9b-----9b~~~~~~r------7h9--7~~~~~-------|
D |------------------------------7h9---------------------|
A |------------------------------------------------------|
E |------------------------------------------------------|


E |-----------guitar-1-----------------------------------|
B |------------------------------------------------------|
G |-7-9------7h9-------7-9-------7-9~~~~~~~~~~~~---------|
D |------7h9-------7h9-------7-9-------------------------|
A |------------------------------------------------------|
E |------------------------------------------------------|


E |-------------guitar-2---------------------------------|
B |------------------------------------------------------|
G |-7~~~~7---7-9--7---7-9---7---7-9~~~~~~~~~~~~~---------|
D |--------9--------9------------------------------------|
A |------------------------------------------------------|
E |------------------------------------------------------|


E |--------------guitar-1---------------------------------|
B |-------------------------------------------------------|
G |-9b-77-9b-77-9b-77-9b-77-9b-77-9b-77-9b-77-9b-77-9b-9--|b
D |-------------------------------------------------------|
A |-------------------------------------------------------|
E |-------------------------------------------------------|


E |--------------guitar-2--------------------------------|
B |------------------------------------------------------|
G |-9b-----777777777777777777777777777777777777777777777-|
D |------------------------------------------------------|
A |------------------------------------------------------|
E |------------------------------------------------------|


E |------------guitar-1----------------------------------|
B |------------------------------------------------------|
G |-9b----9b----9b----9b~~~~~--9p7-7/9~~~~~~~~~~~~~~-----|
D |------------------------------------------------------|
A |------------------------------------------------------|
E |------------------------------------------------------|


E |------------guitar-2----------------------------------|
B |------------------------------------------------------|
G |-9b----9b----9b----9b~~~~~--7h9p7/9b------------------|
D |------------------------------------------------------|
A |------------------------------------------------------|
E |------------------------------------------------------|


E |------------guitar-1----------------------------------|
B |------------------------------------------------------|
G |------------------------------------------------------|
D |------------------------------------------------------|
A |--11/12----12/1111/7-7/5---5/7-----------------------|
E |----------------0---------0-----0~~-------------------|


E |-----------guitar-2-----------------------------------|
B |------------------------------------------------------|
G |------------------------------------------------------|
D |------------------------------------------------------|
A |--11/12-12-12/11--11/7-7/5---5/7~~~~~~~~--------------|
E |-0----------------------------------------------------|


E |-----------guitar-1-----------------------------------|
B |------------------------------------------------------|
G |------------------------------------------------------|
D |------------------------------------------------------|
A |---6b----6b----6b----6b------6b~~~~~~~----------------|
E |-0----------------------------------------------------|


E |--------------guitar-2--------------------------------|
B |------------------------------------------------------|
G |------------------------------------------------------|
D |------------------------------------------------------|
A |---6b-----6b----6b--------6b----6b--------------------|
E |-0--------------0-------------------------------------|


E |-----------------guitar-1-----------------------------|
B |------------------------------------------------------|
G |------------------------------------------------------|
D |------------------------------------------------------|
A |-----6b----6b----6b----6b----6b~~~~~~~~~~r------------|
E |-0-0--------------------------------------------------|
           Pm[____]

E |----------guitar-2------------------------------------|
B |------------------------------------------------------|
G |------------------------------------------------------|
D |------------------------------------------------------|
A |-----6b----6b----6b----6b~~~~6b~~rbrbrbrb-------------|
E |-0-0--------------------------------------------------|


E |------------guitar-1----------------------------------|
B |------------------------------------------------------|
G |------------------------------------------------------|
D |-7/9--------9-9/7--------7-7/9--------9-9/7-----------|
A |-5/7--------7-7/5--------5-5/7--------7-7/5-----------|
E |-0----------0------------0------------0---------------|


E |-----------------guitar-2-----------------------------|
B |------------------------------------------------------|
G |------------------------------------------------------|
D |--9---------9-9/7--------7-7/9--------9-9/7-----------|
A |--7---------7-7/5--------5-5/7--------7-7/5-----------|
E |------------------------------------------------------|
Replay main riff
Solo 2:
E |-----------------guitar-1-----------------------------|
B |------------------------------------------------------|
G |-----------7-------7---7-------7-------7---7----------|
D |-------9-------9-----9-----9-------9-----9------------|
A |-----7---7---7---7-------7---7---7---7----------------|
E |-12/--------------------------------------------------|


E |-------------guitar-2---------------------------------|
B |------------------------------------------------------|
G |------------------------------------------------------|
D |------------------------------------------------------|
A |------------------------------------------------------|
E |---------0---0---0-----------0---0---0----------------|

[ Tab from: http://www.guitaretab.com/b/black-sabbath/182839.html ]
E |--------guitar-1--------------------------------------|
B |------------------------------------------------------|
G |o-------------------------------7-------7---7---------|
D |-9--------------------------9-------9-----9-----------|
A |o7--9--7----7--7--7--7----7---7---7---7---------------|
E |----7--5----5--5--5--5--------------------------------|


E |-------------guitar-2---------------------------------|
B |------------------------------------------------------|
G |o-----------------------------------------------------|
D |-9----------------------------------------------------|
A |o7--9--7----7--7--7--7--------------------------------|
E |----7--5----5--5--5--5--------0---0---0---------------|


E |------------guitar-1----------------------------------|
B |------------------------------------------------------|
G |--------------------------------7-------7---7-------o-|
D |-9--12-9----9--9--9--9------9-------9-----9-----------|
A |-7--10-7----7--7--7--7----7---7---7---7-------------o-|
E |------------------------------------------------------|


E |------------guitar-2----------------------------------|
B |------------------------------------------------------|
G |----------------------------------------------------o-|
D |-9--12-9----9--9--9--9--------------------------------|
A |-7--10-7----7--7--7--7------------------------------o-|
E |------------------------------0---0---0---------------|

Guitar 2 takes a break for a while
E |------------guitar-1----------------------------------|
B |------------------------------------------------------|
G |-------7-------7---7---------7-------7---7------------|
D |---9-------9-----9-------9-------9-----9--------------|
A |-7---7---7---7---------7---7---7---7------------------|
E |------------------------------------------------------|


E |----------------guitar-1------------------------------|
B |------------------------------------------------------|
G |-------7-------7---7---------5-------5---5------------|
D |---9-------9-----9-------7-------7-----7--------------|
A |-7---7---7---7---------5---5---5---5------------------|
E |------------------------------------------------------|


E |---------------guitar-1-------------------------------|
B |------------------------------------------------------|
G |-------5-------5---5---------3-------3---3------------|
D |---7-------7-----7-------5-------5-----5--------------|
A |-5---5---5---5---------3---3---3---3------------------|
E |------------------------------------------------------|

Guitar 2 comes back
E |--------------------guitar 1--------------------------|
B |------------------------------------------------------|
G |-------3-------3---3----------------------------------|
D |---5-------5-----5-----4--------5---5---4-------------|
A |-3---3---3---3---------2--------3---3---2-------------|
E |------------------------------------------------------|


E |-----------------guitar-2-----------------------------|
B |------------------------------------------------------|
G |------------------------------------------------------|
D |-----------------------4--------5---5---4-------------|
A |-----------------------2--------3---3---2-------------|
E |------------------------------------------------------|


E |--------------guitar-1--------------------------------|
B |------------------------------------------------------|
G |------------------------------------------------------|
D |-7/9-----4---5---4h5-4---4--------7/9-----------------|
A |-5/7-----------------------5-2-5--5/7-----------------|
E |-0-----0--------------------------0-------------------|


E |------------guitar-2----------------------------------|
B |------------------------------------------------------|
G |------------------------------------------------------|
D |-7/9-----4---5---4h5-4---4--------7/9-----------------|
A |-5/7-----------------------5------5/7-----------------|
E |-------0---------------------7------------------------|


E |------------------guitar-1----------------------------|
B |------------------------------------------------------|
G |------------------------------------------------------|
D |-----4---5--7-7~~~~~~~-7-4--------7/9-----------------|
A |---------------------------5------5/7-----------------|
E |-0-0-------------------------7----0-------------------|


E |-------------------guitar-2---------------------------|
B |------------------------------------------------------|
G |------------------------------------------------------|
D |-----4---5--7-7~~~~~~~-7-4--------7/9-----------------|
A |---------------------------2-5----5/7-----------------|
E |-0-0--------------------------------------------------|


E |----------guitar-1----------------]-------------------|
B |----------------------------------]-------------------|
G |----------------------------------]-------------------|
D |---4---5---4h5-4---4--------7/9---]-------------------|
A |---------------------5-2-5--5/7---]-------------------|
E |-0--------------------------0-----]-------------------|


E |--------------guitar-2------------]-------------------|
B |----------------------------------]-------------------|
G |----------------------------------]-------------------|
D |---4---5---4h5-4---4--------7/9---]-------------------|
A |---------------------5------5/7---]-------------------|
E |-0---------------------7----------]-------------------|


E |----------------guitar-1-------------------------------|
B |-------------------------------------------------------|
G |------------------------4-4---4/77h9-9-9-9b-9b-9b-7h9-|
D |-----4---5--7-7~~~~~~~---------------------------------|
A |-------------------------------------------------------|
E |-0-0---------------------------------------------------|


E |-----------------guitar-2------------------------------|
B |-------------------------------------------------------|
G |----------------------------------7h9-9-9-9b-9b-9b-----|
D |-----4---5--7-7~~~~~~~-4---------------------------7h9-|
A |-------------------------5-----------------------------|
E |-0-0-----------------------7---------------------------|


E |---------------guitar-1-------------------------------|
B |------------------------------------------------------|
G |-7---7-977-9b-77-9b-77-9b-77-9b-77-9b-77-9b-77-9b-77-|
D |---9--------------------------------------------------|
A |------------------------------------------------------|
E |------------------------------------------------------|


E |-----------------guitar-2------------------------------|
B |-------------------------------------------------------|
G |-7h9---7h9-7777777777777777777777777777777777777777777-|
D |----7h9------------------------------------------------|
A |-------------------------------------------------------|
E |-------------------------------------------------------|


E |--------------guitar-1--------------------------------|
B |------------------------------------------------------|
G |-9b-77-9b-77-9b-77-9b-77-9b-77-9b-77-9b-77-9b-77------|
D |------------------------------------------------------|
A |------------------------------------------------------|
E |------------------------------------------------------|

E |------------guitar-2----------------------------------|
B |------------------------------------------------------|
G |-777777777777777777777777777777777777777777777777777--|
D |------------------------------------------------------|
A |------------------------------------------------------|
E |------------------------------------------------------|


E |---------guitar-1-------------------------------------|
B |------------------------------------------------------|
G |-9b----9b----9b----9b--------7---7--9~~~~~~~~~--------|
D |-------------------------------9----------------------|
A |------------------------------------------------------|
E |------------------------------------------------------|


E |--------guitar-2--------------------------------------|
B |------------------------------------------------------|
G |-777777777777777777777777777----7h9-777777777777------|
D |----------------------------7h9-----------------------|
A |------------------------------------------------------|
E |------------------------------------------------------|


E |---------guitar-1-------------------------------------|
B |------------------------------------------------------|
G |-7/9/7------------7h9-----7h-9~~~----7h9---7h9--------|
D |--------------7h9-----7h9---------7h9---7h9----9p7----|
A |------------------------------------------------------|
E |------------------------------------------------------|


E |-------------------guitar-2---------------------------|
B |------------------------------------------------------|
G |-7h9~~~~~~~~~-7---7h9-7---7h9~~~--7-7-9-7---7-9-------|
D |----------------9-------9----------9------9-----9-7---|
A |------------------------------------------------------|
E |------------------------------------------------------|

E |--------------guitar-1--------------------------------|
B |------------------------------------------------------|
G |------------------------------------------------------|
D |-9p7/5-7p5/4-5-4h5p4---4h5p4---4h5p4---4h5p4----------|
A |---------------------7-------7-------7-------7-7----5-|
E |------------------------------------------------------|


E |---------------guitar-2-------------------------------|
B |------------------------------------------------------|
G |-9b--7h9--p7------------------------------------------|
D |-------------9/5-7-5p4-4h5p4---4-5-7---4h5p4---4h5p4--|
A |----------------------7------7---------------7------7-|
E |------------------------------------------------------|


E |--------------guitar-1--------------------------------|
B |------------------------------------------------------|
G |------------------------------------------------------|
D |-7/9-----4---5---4h5-4---4--------7/9-----------------|
A |-5/7-----------------------5-2-5--5/7-----------------|
E |-0-----0--------------------------0-------------------|


E |---------------guitar-2-------------------------------|
B |------------------------------------------------------|
G |------------------------------------------------------|
D |-7/9-----4---5---4h5-4---4--------7/9-----------------|
A |-5/7-----------------------5------5/7-----------------|
E |-------0---------------------7------------------------|


E |-----------------guitar-1-----------------------------|
B |------------------------------------------------------|
G |------------------------------------------------------|
D |-----4---5---4---7-7---4-------7/9--------------------|
A |-------------------------5-----5/7--------------------|
E |-0-0-----------------------7---0----------------------|

E |-------------guitar-2---------------------------------|
B |------------------------------------------------------|
G |------------------------------------------------------|
D |-----4---5---4---7-7---4-------7/9--------------------|
A |-------------------------2-5---5/7--------------------|
E |-0-0--------------------------------------------------|


E |-----------------guitar-1-----------------------------|
B |------------------------------------------------------|
G |------------------------------------------------------|
D |---4---5---4h5-4---4---------7/9----------------------|
A |---------------------5-2-5---5/7----------------------|
E |-0---------------------------0------------------------|


E |---------------------guitar-2-------------------------|
B |------------------------------------------------------|
G |------------------------------------------------------|
D |---4---5---4h5-4---4---------7/9----------------------|
A |---------------------5-------5/7----------------------|
E |-0---------------------7------------------------------|


E |-------------------guitar-1---------------------------|
B |------------------------------------------------------|
G |------------------------------------------------------|
D |-----4---5---4---7-7---4------------------------------|
A |-------------------------5----------------------------|
E |-0-0-----------------------7-0------------------------|


E |----------------guitar-2------------------------------|
B |------------------------------------------------------|
G |------------------------------------------------------|
D |-----4---5---4---7-7---4------------------------------|
A |-------------------------2-5--------------------------|
E |-0-0-------------------------0------------------------|

E |------------------both guitars------------------------|
B |------------------------------------------------------|
G |-------7-------7---7--------7-------7---7-------------|
D |---9-------9-----9------9-------9-----9---------------|
A |-7---7---7---7--------7---7---7---7-------------------|
E |------------------------------------------------------|


E |-------------------both-guitars-----------------------|
B |------------------------------------------------------|
G |----7---7-7---7---7-7---------------------------------|
D |--9---9--9--9---9--9---9/////////////////-------------|
A |-7-7-7-7---7-7-7-7-----7/////////////////-------------|
E |-----------------------0------------------------------|

To play this last part the best idea would be to slide up one fret at a time and keep 
up until the last note
Guide:
~~~~= let ring
P= pull off
H= hammer on
B= bend
/= slide
R= release bend
o o= repeat line
Related for War Pigs tab