Song name
# A B C D E F G H I J K L M N O P Q R S T U V W X Y Z

Black Sabbath - Loser Gets It All tab

Loser Gets It All
Black Sabbath - Japanese Forbidden CD (1995)

TUNING: Standard EADGBe but down half a step

Fig A
|------------------------------------------------------|
|------------------------------------------------------|
|------------------------------------------------------|
|------------------------------------------------------|
|-----------------7p5----------------------------------|
|-5h7-7-7-7--5h7-------7p5--5h7-7-7-7---5h7-7h8p7-(5)--|

Fig B
Verse:
|----------------------------------------------------------|
|----------------------------------------------------------|
|----------------------------------------------------------|
|--------------------------------------------------9-------|
|--9--------10\--7-----------7----------12\--7-----7-------|
|--7---------9\--5-----------9----------10\--5-------------|

Fig C - after 2nd Verse
"You know it's a bad time...bad time to lose..."
|-----------------------------------|
|-----------------------------------|
|-----------------------------------|
|-7--------9--11---9-------6--------|
|-5--------7---9---7-------4---7----|
|-------------------------------5---|

Fig D
Solo:
|-------------------------------------|
|-------------------------------------|
|-------------------------------------|
|----------7----9-------------7----9--|
|-9--------5----7----9--------5----7--|play 4x
|-7------------------7----------------|

After solo go back to Fig C, then back to Fig A.
Tap to rate this tab
# A B C D E F G H I J K L M N O P Q R S T U V W X Y Z