Song name
# A B C D E F G H I J K L M N O P Q R S T U V W X Y Z

Black Sabbath - Sabbath Bloody Sabbath tab

#----------------------------------PLEASE NOTE---------------------------------#
#This file is the author's own work and represents their interpretation of the #
#song. You may only use this file for private study, scholarship, or research. #
#------------------------------------------------------------------------------##

                             SABBATH BLOODY SABBATH
                          As recorded by Black Sabbath
                  (From the 1974 Album SABBATH BLOODY SABBATH)

Words and Music by Black Sabbath
Transcribed by GuitarHero_JP

Gtr I (C# F# B E G# C#) - 'Tony Iommi'
Gtr II (C# F# B E G# C#) - 'Clean I'
Gtr III (C# F# B E G# C#) - 'Clean II'
Gtr IV (C# F# B E G# C#) - 'Acoustic'
Gtr V (C# F# B E G# C#) - 'Solo Guitar'

   Intro
    Q=145
   4/4
    Gtr I
        PM|    PM|       PM|    PM|                             PM|
    E E E E Q  E E   E E E E Q  E E   Q.  Q.  Q    +E   Q  E Q  E E
||-----------------|----------------|------------|-------------------||
||o----------------|----------------|------------|------------------o||
||-----------------|----------------|------------|-------------------||
||--7/9-----9------|-7/9-----9------|-5---7---9--|-(9)-12--9-9-------||
||o-5/7-7-7-7--7-7-|-5/7-7-7-7--0-0-|-3---5---7--|-(7)-10--7-7--7-7-o||
||-----------------|----------------|------------|-------------------||


   Verse
        PM|    PM|       PM|    PM|                               PM|
    E E E E Q  E E   E E E E Q  E E   Q.   Q.   Q    +E   Q  E Q  E E
||-----------------|----------------|--------------|--------------------||
||o----------------|----------------|--------------|-------------------o||
||-----------------|----------------|--------------|--------------------||
||--7/9-----9------|-7/9-----9------|-5----7----9--|-(9)-12--9-9--------||
||o-5/7-7-7-7--7-7-|-5/7-7-7-7--0-0-|-3----5----7--|-(7)-10--7-7--7-7--o||
||-----------------|----------------|--------------|--------------------||


 Chorus
  Gtr IV
  Q   Q   E   E E  E   E  Q    E  Q     Q
|----12--12--12---12-|---12---12-12----12--|
|----12--12--12---12-|---12---12-12----12--|
|----12--12--12---12-|---12---12-12----12--|
|----10--10--10---10-|---10---10-10----10--|
|----12--12--12---12-|---12---12-12----12--|
|--------------------|---------------------|
|
| Gtr II
| H       Q.       E   E  E E  E  E Q.
|-----------------10-|----8---10----8------|
|--------------------|---------------------|
|------------------7-|----5----7----5------|
|--------------------|---------------------|
|--------------------|---------------------|
|--------------------|---------------------|
|
| Gtr III
|--------------------|---------------------|
|--------------------|---------------------|
|--------------------|---------------------|
|--------------------|---------------------|
|--------------------|---------------------|
|--------------------|---------------------|


   Q.    Q.    Q     +E   E E  E  Q.         E
|-10----10----10--|-(10)-10---10-10---------10-|
|-12----12----12--|-(12)-12---12-12---------12-|
|-12----12----12--|-(12)-12---12-12---------12-|
|-12----12----12--|-(12)-12---12-12---------12-|
|-10----10----10--|-(10)-10---10-10---------10-|
|-----------------|----------------------------|
|
|  Q.    Q.    Q     +E   E E  E  E    E  E  E
|-----------------|----------------------------|
|--8--------------|----------------------------|
|--7--------------|-----------------------7----|
|--9-----7-----5--|--(5)-------5--7----9-----9-|
|-----------------|-------5h7------------------|
|-----------------|----------------------------|
|
|  Q.    Q.    Q     +E   E E  E  Q       E  E
|--7--------------|----------------------10----|
|-------10-----8--|--(8)-------8-10b12------10-|
|-----------------|-------7h9------------------|
|-----------------|----------------------------|
|-----------------|----------------------------|
|-----------------|----------------------------|


   Q   Q   E  E E  E   E  Q   E  Q   Q
|-----12--12-12---12-|---12--12-12--12--|
|-----12--12-12---12-|---12--12-12--12--|
|-----12--12-12---12-|---12--12-12--12--|
|-----10--10-10---10-|---10--10-10--10--|
|-----12--12-12---12-|---12--12-12--12--|
|--------------------|------------------|
|
|  W                   W
|--------------------|------------------|
|--------------------|------------------|
|--------------------|------------------|
|--7-----------------|------------------|
|--------------------|------------------|
|--------------------|------------------|
|
|  W
|--------------------|------------------|
|-10-----------------|------------------|
|--------------------|------------------|
|--------------------|------------------|
|--------------------|------------------|
|--------------------|------------------|


   Q.    Q.      Q      +E   E E  E   Q.         E
|-10----10------10---|-(10)-10---10--10---------10--|
|-12----12------12---|-(12)-12---12--12---------12--|
|-12----12------12---|-(12)-12---12--12---------12--|
|-12----12------12---|-(12)-12---12--12---------12--|
|-10----10------10---|-(10)-10---10--10---------10--|
|--------------------|------------------------------|
|
|                                     |----3-----|
|  H        Q.     E     E   E E  E   Q    Q     Q
|--------------------|------------------------------|
|--------------------|------------------------------|
|--------------------|----------------7----------7--|
|--------------------|-------5-7--9--------9--------|
|------------------5-|---7--------------------------|
|--------------------|------------------------------|
|
|                                          |--3--|
|                        E   Q    Q.       E  E  E
|--------------------|--17--15---12-------10--------|
|--------------------|-----------------------10-----|
|--------------------|--------------------------12--|
|--------------------|------------------------------|
|--------------------|------------------------------|
|--------------------|------------------------------|


   Q   E  E E  E  Q     +E   Q   E  Q   Q
|-12--12-12---12-12--|-(12)-12--12-12--12--|
|-12--12-12---12-12--|-(12)-12--12-12--12--|
|-12--12-12---12-12--|-(12)-12--12-12--12--|
|-10--10-10---10-10--|-(10)-10--10-10--10--|
|-12--12-12---12-12--|-(12)-12--12-12--12--|
|--------------------|---------------------|
|
|  W                     W
|--------------------|---------------------|
|--------------------|---------------------|
|--------------------|---------------------|
|--7-----------------|---------------------|
|--------------------|---------------------|
|--------------------|---------------------|
|
|  W
|--------------------|---------------------|
|-10-----------------|---------------------|
|--------------------|---------------------|
|--------------------|---------------------|
|--------------------|---------------------|
|--------------------|---------------------|


   Q   E  E E  E  Q      +E   Q    Q.      Q
|-10--10-10---10-10---|-(10)-10---10------10-----|
|-12--12-12---12-12---|-(12)-12---12------12-----|
|-12--12-12---12-12---|-(12)-12---12------12-----|
|-12--12-12---12-12---|-(12)-12---12------12-----|
|-10--10-10---10-10---|-(10)-10---10------10-----|
|---------------------|--------------------------|
|
|                                      |--3---|
|  H        E  E  E E     E   E E  E   Q   Q  Q
|---------------------|--------------------------|
|---------------------|--------------------------|
|---------------------|----------------7---9--9--|
|--------------5--7-9-|-------5-7--9-------------|
|---------------------|--------------------------|
|---------------------|--------------------------|
|
|                                      |--3---|
|  W                      E   E E  E   Q   Q  Q
|---------------------|------12-------10---------|
|---------------------|-----------12------10-----|
|---------------------|-----------------------9--|
|---------------------|--------------------------|
|---------------------|--------------------------|
|---------------------|--------------------------|


                                               Gtrs I, IV
   Q    E  E  E  E  Q     +E   Q   E  Q   Q    Q.   Q.   Q    +E  Q.   Q  Q
|-12---12-12----12-12--|-(12)-12--12-12--12--|-2----0----2--|-(2)-0----2--2----|
|-12---12-12----12-12--|-(12)-12--12-12--12--|-3----2----3--|-(3)-2----3--3----|
|-12---12-12----12-12--|-(12)-12--12-12--12--|-2----2----2--|-(2)-2----2--2----|
|-10---10-10----10-10--|-(10)-10--10-10--10--|-0----0----0--|-(0)-0----0--0----|
|-12---12-12----12-12--|-(12)-12--12-12--12--|--------------|------------------|
|----------------------|---------------------|--------------|------------------|
|
|  Q.      Q.       Q     +W
|----------------------|---------------------|--------------|------------------|
|-10-------------------|---------------------|--------------|------------------|
|----------------------|---------------------|--------------|------------------|
|--9-------7--------5--|--(5)----------------|--------------|------------------|
|----------------------|---------------------|--------------|------------------|
|----------------------|---------------------|--------------|------------------|
|
|  Q.      Q.       Q     +W
|----------------------|---------------------|--------------|------------------|
|-10-------------------|---------------------|--------------|------------------|
|----------------------|---------------------|--------------|------------------|
|--9-------7--------5--|--(5)----------------|--------------|------------------|
|----------------------|---------------------|--------------|------------------|
|----------------------|---------------------|--------------|------------------|

Verse
Chorus


   Solo (Play main riff behind it)
    Gtr V
    Q   Q      E  E  Q     Q      E  E  H
||----------------------|--------------------|
||o----15---------------|-15-----------------|
||-----14b16--14-12-----|-14b16--14-12-------|
||------------------14--|--------------14----|
||o---------------------|--------------------|
||----------------------|--------------------|


                            ~~
   |---3---|   |---3---|
   Q   Q   Q   Q   Q   Q    W
|------------------------|--------||
|------------------------|-------o||
|-11----------14--11-----|--------||
|-----14--12----------12-|-14-----||
|------------------------|-------o||
|------------------------|--------||


                  ~~~                 ~~~~~~~
  Q   E     E  E  Q.      E     E  E  E  +H
|----------------------|------------------------|
|----------------------|------------------------|
|----14b16-12-14-------|-14b16-12-14------------|
|----------------14----|-------------14-(14)----|
|----------------------|------------------------|
|----------------------|------------------------|


                                 ~~~~~~~~~
   |------3------|
   Q      Q   E  E  E     E  E.  S    +W
|----------------------------------|---------|
|-15b17--15--12--------------------|---------|
|---------------14-14b16r12--------|---------|
|---------------------------14--14-|-(14)----|
|----------------------------------|---------|
|----------------------------------|---------|


  Q   E     E      E      E  E  E    E     E      E      E      E      E  Q
|---------------------------------|------------------------------------------|
|----17----17-----17--------------|------------------------------------------|
|----14b16-14pb16-14pb16r12----12-|-14b16-14pb16-14pb16-14pb16-14pb16r12-----|
|---------------------------14----|--------------------------------------14--|
|---------------------------------|------------------------------------------|
|---------------------------------|------------------------------------------|


                               ~~~~~~~~~
   |-----3-----|
   Q     Q  E  E  E     E  E.  S    +W
|--------------------------------|---------|
|-15b17-15-12--------------------|---------|
|-------------14-14b16r12--------|---------|
|-------------------------14--14-|-(14)----|
|--------------------------------|---------|
|--------------------------------|---------|


 Bridge
  Gtr I
   W               +W              Q.     Q.   Q   +E  Q.   Q  Q
|---------------|----------------|---------------|----------------|
|---------------|----------------|---------------|----------------|
|---------------|----------------|---------------|----------------|
|-14------------|-(14)-----------|-9------7----9-|-(9)-7----9--7--|
|-12------------|-(12)-----------|-7------5----7-|-(7)-5----7--5--|
|---------------|----------------|---------------|----------------|
|
| Gtr V
|  Q.   Q  E Q     +E  Q  E H      Q.  Q.    Q     +E  Q.   Q  Q
|---------------|----------------|---------------|----------------|
|---------------|----------------|---------------|----------------|
|---------------|----------------|---------------|----------------|
|--7----7--5-7--|--(7)-7--5-7----|-5---4-----5---|-(5)-4----5-----|
|---------------|----------------|---------------|-------------7--|
|---------------|----------------|---------------|----------------|


   W               +W              Q.   Q.   Q    +E  Q.   Q  Q
|---------------|----------------|--------------|----------------|
|---------------|----------------|--------------|----------------|
|---------------|----------------|--------------|----------------|
|-14------------|-(14)-----------|-9----7----9--|-(9)-7----9--7--|
|-12------------|-(12)-----------|-7----5----7--|-(7)-5----7--5--|
|---------------|----------------|--------------|----------------|
|
|  Q.   Q  E Q     +E  Q  E H      Q.   Q.   Q    +E  Q.   Q  Q
|---------------|----------------|--------------|----------------|
|---------------|----------------|--------------|----------------|
|---------------|----------------|--------------|-----4----5--4--|
|--7----7--5-7--|--(7)-7--5-7----|-5----4----5--|-(5)------------|
|---------------|----------------|--------------|----------------|
|---------------|----------------|--------------|----------------|


  Gtrs I, V
  W          +W
|----------|--------|
|----------|--------|
|----------|--------|
|-4--------|-(4)----|
|-2--------|-(2)----|
|----------|--------|


    Gtr I
    E E E E E E E E   E E E E E Q.     E E E E E E E E   E E E E E Q.     5x
||------------------|----------------|-----------------|------------------||
||o-----------------|----------------|-----------------|-----------------o||
||------------------|----------------|-----------------|------------------||
||------------------|----------------|-----------------|------------------||
||o-----------------|----------------|-----------------|-----------------o||
||--0-0-3-2-3-2-3-0-|---0-3-2-3-4----|-0-0-3-2-3-2-3-0-|---0-3-2-3-4------||


 Break
  E E E E E E E E   E E E Q.   S S   E E E E E E E E   E E E Q.   S S
|-----------------|----------------|-----------------|----------------|
|-----------------|----------------|-----------------|----------------|
|-----------------|----------------|-----------------|----------------|
|-9-9-9-7-9-9---9-|---7---5--------|-9-9-9-7-9-9---9-|---7---5--------|
|-7-7-7-5-7-7---7-|---5---3----2/5-|-7-7-7-5-7-7---7-|---5---3----2/5-|
|-----------------|----------------|-----------------|----------------|


  E E E E E E E E   E E E Q  Q.     W          +W
|-----------------|---------------|----------|--------|
|-----------------|---------------|----------|--------|
|-----------------|---------------|----------|--------|
|-9-9-9-7-9-9---9-|---7---5--7----|-4--------|-(4)----|
|-7-7-7-5-7-7---7-|---5---3--5----|-2--------|-(2)----|
|-----------------|---------------|----------|--------|


   Outro (Fade Out)
    |3| |-3-| |3| |-3-|   |3| |-3-| |3| |-3-|
    Q E E E E Q E E E E   Q E E E E Q E E E E  7x
||----------------------|----------------------||
||o---------------------|---------------------o||
||----------------------|----------------------||
||----------------------|----------------------||
||o-2-2-2p0---2-2-----0-|-2-2-2p0---2-2-----0-o||
||----------2-------2---|---------2-------2----||


Duration Legend
---------------
W - whole; H - half; Q - quarter; E - 8th; S - 16th; T - 32nd; X - 64th; a - acciaccatura
+ - note tied to previous; . - note dotted; .. - note double dotted
Uncapitalized letters represent notes that are staccato (1/2 duration)
Irregular groupings are notated above the duration line
Duration letters will always appear directly above the note/fret number it represents the
duration for.  Duration letters with no fret number below them represent rests.  Multi-
bar rests are notated in the form Wxn, where n is the number of bars to rest for.  Low
melody durations appear below the staff

Tablature Legend
----------------
 h   - hammer-on
 p   - pull-off
 b   - bend
 pb  - pre-bend
 r   - bend release (if no number after the r, then release immediately)
 /\  - slide into or out of (from/to "nowhere")
 s   - legato slide
 S   - shift slide
  - natural harmonic
[n]  - artificial harmonic
n(n) - tapped harmonic
 ~   - vibrato
 tr  - trill
 T   - tap
 TP  - trem. picking
 PM  - palm muting
\n/  - tremolo bar dip; n = amount to dip
 \n  - tremolo bar down
 n/  - tremolo bar up
/n\  - tremolo bar inverted dip
 =   - hold bend; also acts as connecting device for hammers/pulls
 <>  - volume swell (louder/softer)
 x   - on rhythm slash represents muted slash
 o   - on rhythm slash represents single note slash

Misc Legend
-----------
 |  - bar
||  - double bar
||o - repeat start
o|| - repeat end
*|  - double bar (ending)
 :  - bar (freetime)
 $  - Segno
 &  - Coda
Tempo markers -  = BPM(8/16=s8/s16), where s8 = swing 8ths, s16 = swing 16ths


***************************************************************************************
* Generated using Power Tab Editor by Brad Larsen - http://powertab.guitarnetwork.org *
***************************************************************************************
Tap to rate this tab
 
# A B C D E F G H I J K L M N O P Q R S T U V W X Y Z