Song name
# A B C D E F G H I J K L M N O P Q R S T U V W X Y Z

Black Sabbath - Electric Funeral tab

Song: electric funeral
Atist: black sabbath
Álbum: paranoit
tabbet by: daniel ortega monge, san jose, costa rica

Good song, and easy I hope you like it…
If you wanna say something about it e-mail me to dom030891@hotmail.com 

Standard: tunning 
e
B
G
D
A
E

intro
|----------------------------|
|----------------------------|play this 4 times with a wah pedal
|----------------------------|
|----------------------------|
|---------~~~----------------|
|----0-0-7/8/7-----0—2/3/2---|                      

|--------------------|
|--------------------|
|--------------------|
|--------------------|
|---x-x-x-x-9-8-7-5--|
|---x-x-x-x-7-6-5-3--|                                      
Reflex in the sky warn you you're gonna die
Storm coming, you'd better hide from the atomic tide
Flashes in the sky turns houses into sties
Turns people into clay, radiation minds decay

|----------------------------|
|----------------------------|play this again 4 times with a wah pedal
|----------------------------|
|----------------------------|
|---------~~~----------------|
|----0-0-7/8/7-----0—2/3/2---| 
            
|--------------------|
|--------------------|
|--------------------|
|--------------------|
|---x-x-x-x-9-8-7-5--|
|---x-x-x-x-7-6-5-3--|   
Robot minds of robot slaves lead them to atomic rage
plastic flowers, melting sun, fading moon falls upon
dying world of radiation, victims of mad frustration
Burning globe of oxy'n fire, like electric funeral pyre    
                      

|----------------------------|                           |-----------|
|----------------------------|play this again 4          |-----------|
|----------------------------| times with a wah pedal    |-----------|
|----------------------------|     and then..            |-----------|and then here they play 
|---------~~~----------------|                           |-----------|  some percution
|----0-0-7/8/7-----0—2/3/2---|                           |-----0-----|

|--------------------------------------------------------|
|--------------------------------------------------------|
|--------------------------------------------------------|
|-9-8-7-----------9-8-7------9-8-7---9-8-7---9-8-7-------|
|-7-6-5-percution-7-6-5------7-6-5---7-6-5---7-6-5-------|
|--------------------------------------------------------|         

|------------12-12-12--12-12--|
|------------12-12-12--12-12--|play this 4 times
|------------12-12-12--12-12--|
|-----------------------------|
|---7-5-7---------------------|
|-----------------------------|
                                                                                
|------------------|----------------------|
|-5-8-10-8-10b12---|-5-8-10-10h12p10/8-5--|
|------------------|----------------------|
|------------------|----------------------|
|------------------|----------------------|
|------------------|----------------------|
Buildings crashing down to a cracking ground
Rivers turn to wood,     ice melting to flood


|------------12-12-12--12-12--|
|------------12-12-12--12-12--|play this 4 times
|------------12-12-12--12-12--|
|-----------------------------|
|---7-5-7---------------------|
|-----------------------------|
                                                                              
|------------------|----------------------|
|-5-8-10-8-10b12---|-5-8-10-10h12p10/8-5--|
|------------------|----------------------|
|------------------|----------------------|
|------------------|----------------------|
|------------------|----------------------|
Earth lies in death bed, clouds cry water dead
Tearing life away,        here's the burning pay


|-(-)/12-12-12-12/(-)-|
|---------------------|
|---------------------|
|---------------------|
|---------------------|
|---------------------|
 Electric Funeral
 Electric Funeral
 Electric Funeral
 Electric Funeral


|------------------------------|-------------------------------|---------------------|
|------------------------------|-------------------------------|---------------------|
|-(-)/4-4-4-(/)-11-(/)-13/(-)--|--(-)/4-4-4-(/)-11-(/)-13/(-)--|--(-)/4-4-4-(/)-11---|
|------------------------------|-------------------------------|---------------------|
|------------------------------|-------------------------------|---------------------|
|------------------------------|-------------------------------|---------------------|

|----------------------------|
|----------------------------|play this again 4 times with a wah pedal
|----------------------------|
|----------------------------|
|---------~~~----------------|
|----0-0-7/8/7-----0—2/3/2---| 

            
|--------------------|
|--------------------|
|--------------------|
|--------------------|
|---x-x-x-x-9-8-7-5--|
|---x-x-x-x-7-6-5-3--|                           
And so in the sky shines the electric eye
supernatural king takes earth under his wing


|----------------------------|
|----------------------------|play this again 4 times with a wah pedal
|----------------------------|
|----------------------------|
|---------~~~----------------|
|----0-0-7/8/7-----0—2/3/2---| 
                     
|--------------------|
|--------------------|
|--------------------|
|--------------------|
|---x-x-x-x-9-8-7-5--|
|---x-x-x-x-7-6-5-3--|                 
Heaven's golden chorus sings, Hell's angels flap their wings
Evil souls fall to Hell, ever trapped in burning cells!
               
      
|--------------------|
|--------------------|
|--------------------|fade out…
|--------------------|
|---x-x-x-x-9-8-7-5--|
|---x-x-x-x-7-6-5-3--|               

Well, enjoy it. e-mail me if you wanna say something to dom030891@hotmail.com
Tap to rate this tab
# A B C D E F G H I J K L M N O P Q R S T U V W X Y Z