Song name
# A B C D E F G H I J K L M N O P Q R S T U V W X Y Z

Black Sabbath - Turn Up The Night tab

-------------------------------------------------------------------------------
			     Turn Up The Night - Black Sabbath
-------------------------------------------------------------------------------
Tabbed by: AlexC15	


Tuning: Standard


Intro Riff Played Twice

e|---------------------------------------------------------------------------|
B|---------------------------------------------------------------------------|
G|---------------------------------------------------------------------------|
D|-----------------4-----6---------------------------------------------------|
A|-2-2-2-2-2-2-2-2-2p0-0-4---------------------------------------------------|
E|-0-0-0-0-0-0-0-0-----------------------------------------------------------|
   x x x x x x x x     x

e|---------------------------------------------------------------------------|
B|---------------------------------------------------------------------------|
G|---------------------------------------------------------------------------|
D|-----------------------2p1-------------------------------------------------|
A|-2-2-2-2-2-2-2-2-0-2-4-----2h4---------------------------------------------|
E|-0-0-0-0-0-0-0-0-----------------------------------------------------------|
   x x x x x x x x


Verse riff

e|---------------------------------------------------------------------------|
B|---------------------------------------------------------------------------|
G|-----------------------------------7---------------------------------------|
D|-------------------------7-7-----------------------------------------------|
A|-2-2-2-2-2-2-2-2-2-2-2-2-5-5-5h7p5--4h5------------------------------------|
E|-0-0-0-0-0-0-0-0-0-0-0-0---------------------------------------------------|
   x x x x x x x x x x x x

e|---------------------------------------------------------------------------|
B|---------------------------------------------------------------------------|
G|---------------------------------------------------------------------------|
D|-------------------------2-2-2---------------------------------------------|
A|-2-2-2-2-2-2-2-2-2-2-2-2-0-0-0---------------------------------------------|
E|-0-0-0-0-0-0-0-0-0-0-0-0---------------------------------------------------|
   x x x x x x x x x x x x

e|---------------------------------------------------------------------------|
B|---------------------------------------------------------------------------|
G|-----------------------------------7---------------------------------------|
D|-------------------------7-7-----------------------------------------------|
A|-2-2-2-2-2-2-2-2-2-2-2-2-5-5-5h7p5--4h5------------------------------------|
E|-0-0-0-0-0-0-0-0-0-0-0-0---------------------------------------------------|
   x x x x x x x x x x x x

e|---------------------------------------------------------------------------|
B|---------------------------------------------------------------------------|
G|---------------------------------------------------------------------------|
D|-------------------------7-7-7-6-6-6---------------------------------------|
A|-2-2-2-2-2-2-2-2-2-2-2-2-5-5-5-4-4-4---------------------------------------|
E|-0-0-0-0-0-0-0-0-0-0-0-0---------------------------------------------------|
   x x x x x x x x x x x x

Play the Intro riff twice during the solo

Second verse riff

e|---------------------------------------------------------------------------|
B|---------------------------------------------------------------------------|
G|-----------------------------------7---------------------------------------|
D|-------------------------7-7-----------------------------------------------|
A|-2-2-2-2-2-2-2-2-2-2-2-2-5-5-5h7p5--4h5------------------------------------|
E|-0-0-0-0-0-0-0-0-0-0-0-0---------------------------------------------------|
   x x x x x x x x x x x x

e|---------------------------------------------------------------------------|
B|---------------------------------------------------------------------------|
G|---------------------------------------------------------------------------|
D|-------------------------2-2-2---------------------------------------------|
A|-2-2-2-2-2-2-2-2-2-2-2-2-0-0-0---------------------------------------------|
E|-0-0-0-0-0-0-0-0-0-0-0-0---------------------------------------------------|
   x x x x x x x x x x x x

e|---------------------------------------------------------------------------|
B|---------------------------------------------------------------------------|
G|---------------------------------------------------------------------------|
D|-------------------------7-7-7-6-6-6---------------------------------------|
A|-2-2-2-2-2-2-2-2-2-2-2-2-5-5-5-4-4-4---------------------------------------|
E|-0-0-0-0-0-0-0-0-0-0-0-0---------------------------------------------------|
   x x x x x x x x x x x x


Chorus riff X2

e|---------------------------------------------------------------------------|
B|---------------------------------------------------------------------------|
G|---------------------------------------------------------------------------|
D|-------------4-2-----------------------------------------------------------|
A|-2-2-2-2-2-2-2-0-----------------------------------------------------------|
E|-0-0-0-0-0-0---------------------------------------------------------------|
   x x x x x x x

For the third time play...

e|---------------------------------------------------------------------------|
B|---------------------------------------------------------------------------|
G|---------------------------------------------------------------------------|
D|-------------4-6-9-4-4-6-6-9-4-4-6-----------------------------------------|
A|-2-2-2-2-2-2-2-4-7-2-2-4-4-7-2-2-4-----------------------------------------|
E|-0-0-0-0-0-0---------------------------------------------------------------|
   x x x x x x x

Bridge "Night time sorrow..." 
X3                            X1
e|---------------------------|-----------------------------------------------|
B|---------------------------|-----------------------------------------------|
G|---------------------------|-----------------------------------------------|
D|-6-9-4-4-6-----------------|-6-9-4-4-6-7-8-9-10-11-12-13-14----------------|
A|-4-7-2-2-4-----------------|-4-7-2-3-4-5-6-7-8--9--10-11-12----------------|
E|---------------------------|-----------------------------------------------|

Rhythm for solo

e|----------|-----------|-----------|----------------------------------------|
B|----------|-----------|-----------|----------------------------------------|
G|----------|-----------|-----------|----------------------------------------|
D|-6-9-4-4-6|-6---4-4-6-|-6-9-4-4-6-|-6-11-4-5-6-7-8-9-10-11-12-13-14--------|
A|-4-7-2-2-4|-4-4-2-2-4-|-4-7-2-2-4-|-4-9--2-3-4-5-6-7-8--9--10-11-12--------|
E|----------|---2-------|-----------|----------------------------------------|

Play the Intro Riff twice
Verse Riff
Chorus Riff Until The Song Ends


************************************

| /   slide up
| \   slide down
| h   hammer-on
| p   pull-off
| ~   vibrato
| +   harmonic
| x   Mute note
| b   Bend
| pb  Pre-bend
| br  Bend release
| pbr Pre-bend release
| brb Bend release bend

************************************
Tap to rate this tab
 
# A B C D E F G H I J K L M N O P Q R S T U V W X Y Z