Song name
# A B C D E F G H I J K L M N O P Q R S T U V W X Y Z

Black Sabbath - Black Sabbath Live tab

---------------------------------------------------------------------------
Black Sabbath - Black Sabbath (live Paris 1970)
---------------------------------------------------------------------------


C#|----------------------------------------------------------------------|
G#|----------------------------------------------------------------------|
E |---3---3---3---3---3---3---3---3---3---3---3---3---3---3---3---3------|
B |--4---4---4---4---5---5---5---5---3---3---3---3---3---3---3---3-------|
F#|-5---5---5---5---6---6---6---6---4---4---4---4---3---3---3---3--------|
C#|----------------------------------------------------------------------|

C#|-----3---3---3-------3---3---3---5---5---5---5--------5---------------|
G#|----------------------------------------------------------------------|
E |----------------------------------------------------------------------|
B |-----------------------------------7----------------------------------|
F#|-----------6---3h5p3-------------------8---7----5h7p5-----------------|
C#|-6-5---3---------------6---5---5-------------------------8-7-5--------|

C#|----------------------------------------------------------------------|
G#|----------------------------------------------------------------------|
E |---------------------------------3----3---3---3---3-------------------|
B |-5--3-3-3-3-----3--3-3-3-3------3----3---3---3---3--------------------|
F#|-5--5-5-5-4-----5--5-5-5-4-----4----4---3---3---4---------------------|
C#|-3--3-3-3-3-----3--3-3-3-3--------------------------------------------|

C#|----------------------------------------------------------------------|
G#|----------------------------------------------------------------------|
E |----------------------------------------------------------------------|
B |-----3-4-6-3-4---3-----------------------------3-4---3----------------|
F#|-4-6-----------6---4-6-3-4---3-----3-4---3-4-6-----6---6-4-3----------|
C#|---------------------------6---4-6-----6---------------------6-4-3----|

C#|----------------------------------------------------------------------|
G#|----------------------------------------------------------------------|
E |---3---3---3---3---3---3----3---3---3---3---3---3---3---3-------------|
B |--3---3---3---3---3---3----4---4---4---4---5---5---5---5--------------|
F#|-4---4---3---4---3---4----5---5---5---5---6---6---6---6---------------|
C#|----------------------------------------------------------------------|

C#|----------------------------------------------------------------------|
G#|----------------------------------------------------------------------|
E |---3---3---3---3---3---3---3---3---3---3------------------------------|
B |--3---3---3---3---3---3---3---3---3---3-------------------------------|
F#|-4---4---4---4---3---4---3---4---3---3--------------------------------|
C#|----------------------------------------------------------------------|

C#|-----3---3---3-------3---3---3---5---5---5---5--------5---------------|
G#|----------------------------------------------------------------------|
E |----------------------------------------------------------------------|
B |-----------------------------------7----------------------------------|
F#|-----------6---3h5p3-------------------8---7----5h7p5-----------------|
C#|-6-5---3---------------6---5---5-------------------------8-7-5--------|

C#|----------------------------------------------------------------------|
G#|----------------------------------------------------------------------|
E |------------------------------3---3---3---3---3---3---3---3-----------|
B |-5--3-3-3-3----3--3-3-3-3----3---3---3---3---3---3---3---3------------|
F#|-5--5-5-5-4----5--5-5-5-4---4---4---3---3---4---4---3---3-------------|
C#|-3--3-3-3-3----3--3-3-3-3---------------------------------------------|

C#|------------------------------------------------------------------------|
G#|------------------------------------------------------------------------|
E |--3---------------------------------------3-----------------------------|
B |-3-----3-4-6-3-4--3-----------------3-4-6---6-4-3-4-3-3---3-------------|
F#|4--4-6----------6--4-6-3-4--3-3-4-6---------------------6-4-3-4-3-------|
C#|---------------------------6--------------------------------------6-4-3-|

C#|------------------------------------------------------------------------|
G#|------------------------------------------------------------------------|
E |---3---3---3---3---3---3---3---3---3---3---3---3---3---3---3---3---3---3|
B |--3---3---3---3---3---3---4---4---4---4---5---5---5---5---3---3---3---3-|
F#|-4---4---3---4---3---4---5---5---5---5---6---6---6---6---4---4---4---4--|
C#|------------------------------------------------------------------------|

C#|------------------------------------------------------------------------|
G#|------------------------------------------------------------------------|
E |------------------------------------------------------------------------|
B |-------3-4---3-----------------------------------3-4---3----------------|
F#|-3-4-6-----6---4-6-3-4---3-----------3-4---3-4-6-----6---6-4-3----------|
C#|-----------------------6---6-4-3-4-6-----6---------------------6-4-3----|

C#|------------------------------------------------------------------------|
G#|------------------------------------------------------------------------|
E |---------------------3---3---3---3---3---3---3---3---3---3--------------|
B |--------------------3---3---3---3---3---3---4---4---4---4---------------|
F#|-----3-4---3-------4---4---3---4---3---4---5---5---5---5----------------|
C#|-4-6-----6---6-4-3------------------------------------------------------|

C#|-----------------------------------------------------3------------------|
G#|----------------------------------------------------3-------------------|
E |---3---3---3---3---3---3---3---3---3---3---3---3---3--------------------|
B |--5---5---5---5---3---3---3---3---3---3---3---3---3---------------------|
F#|-6---6---6---6---4---4---4---4---3---4---3---4---3----------------------|
C#|------------------------------------------------------------------------|

Then continue onto Black Sabbath
I use Version #3

************************************

| /   slide up
| \   slide down
| h   hammer-on
| p   pull-off
| ~   vibrato
| +   harmonic
| x   Mute note
| b   Bend
| pb  Pre-bend
| br  Bend release
| pbr Pre-bend release
| brb Bend release bend

************************************

Tap to rate this tab
# A B C D E F G H I J K L M N O P Q R S T U V W X Y Z