Black Sabbath - Snowblind tab

Snowblind
Black Sabbath

E- ----------------------------------------------------------------|
B- -----------------------------3-----------------------5----------|
G- -5-7-8---3---5---------3--------3-----3--------5--------5-----5-|
D- -5-7-8---3---5------3-----3--------3--------5-----5--------5----|
A- -3-5-6---1---3---1-----------------------3----------------------|
E- ----------------------------------------------------------------|

E- ----------------------------------------------------------------|
B- -----------------------------3-----------------------5----------|
G- -5-7-8---3---5---------3--------3-----3--------5--------5-----5-|
D- -5-7-8---3---5------3-----3--------3--------5-----5--------5----|
A- -3-5-6---1---3---1-----------------------3----------------------|
E- ----------------------------------------------------------------|

E- ---------------------------------------------------------------|
B- ---------------------------------------------------------------|
G- -5-x-5-5-x-3-3-3/5-5-x-5-5-x-3-3-3/5---------------------------|
D- -5-x-5-5-x-3-3-3/5-5-x-5-5-x-3-3-3/5---------------------------|
A- -3-x-3-3-x-1-1-1/3-3-x-3-3-x-1-1-1/3---------------------------|
E- ---------------------------------------------------------------|
Tap to rate this tab
 
# A B C D E F G H I J K L M N O P Q R S T U V W X Y Z