Song name
# A B C D E F G H I J K L M N O P Q R S T U V W X Y Z

Black Sabbath - Voodoo Live tab

        A  Gm7 Am7  Am7 Gm7 A      A Gm7Am7 Gm7 A A
------------------------------------------------------|
-------------5-7------7-5---------------5-7--5--------|
----5--------5-7-5p0--7-5------5--------5-7--5--------|
-0h5-2-2-2-2-5-7----7-7-5-2-0h5-2-2-2-2-5-7--5-2-2----|
-----0-0-0-0--------------0-----0-0-0-0--------0-0----|
------------------------------------------------------|
    {..pm..}                    {..pm..}

        A  Gm7 Am7  Am7 Gm7 A      A Gm7Am7 Gm7 A A
------------------------------------------------------|
-------------5-7------7-5---------------5-7--5--------|
----5--------5-7-5p0--7-5------5--------5-7--5--------|
-0h5-2-2-2-2-5-7----7-7-5-2-0h5-2-2-2-2-5-7--5-2-2----|
-----0-0-0-0--------------0-----0-0-0-0--------0-0----|
------------------------------------------------------|
    {..pm..}                    {..pm..}
  Hey!        There's evil there.     It's too late!

        A  Gm7 Am7  Am7 Gm7 A      A Gm7Am7 Gm7 A A
------------------------------------------------------|
-------------5-7------7-5---------------5-7--5--------|
----5--------5-7-5p0--7-5------5--------5-7--5--------|
-0h5-2-2-2-2-5-7----7-7-5-2-0h5-2-2-2-2-5-7--5-2-2----|
-----0-0-0-0--------------0-----0-0-0-0--------0-0----|
------------------------------------------------------|
    {..pm..}                    {..pm..}
 Say you don't love me, You'll burn. You can refuse but you'll lose. It's by
                                                                  me.

        A  Gm7 Am7  Am7 Gm7 A      A Gm7Am7 Gm7 A A
------------------------------------------------------|
-------------5-7------7-5---------------5-7--5--------|
----5--------5-7-5p0--7-5------5--------5-7--5--------|
-0h5-2-2-2-2-5-7----7-7-5-2-0h5-2-2-2-2-5-7--5-2-2----|
-----0-0-0-0--------------0-----0-0-0-0--------0-0----|
------------------------------------------------------|
    {..pm..}                    {..pm..}
 Say you don't love me, you'll learn. Nothing you do will be new 'cause I'm
                                                                through.
 D    D
----------------|
----------------|
-7----7---------|
-7----7---------|
-5----5---------|
---3~---3~------|
          Alright!

        A  Gm7 Am7  Am7 Gm7 A      A Gm7Am7 Gm7 A A
------------------------------------------------------|
-------------5-7------7-5---------------5-7--5--------|
----5--------5-7-5p0--7-5------5--------5-7--5--------|
-0h5-2-2-2-2-5-7----7-7-5-2-0h5-2-2-2-2-5-7--5-2-2----|
-----0-0-0-0--------------0-----0-0-0-0--------0-0----|
------------------------------------------------------|
    {..pm..}                    {..pm..}
              Yeah! Yeah! Hey!

        A  Gm7 Am7  Am7 Gm7 A      A Gm7Am7 Gm7 A A
------------------------------------------------------|
-------------5-7------7-5---------------5-7--5--------|
----5--------5-7-5p0--7-5------5--------5-7--5--------|
-0h5-2-2-2-2-5-7----7-7-5-2-0h5-2-2-2-2-5-7--5-2-2----|
-----0-0-0-0--------------0-----0-0-0-0--------0-0----|
------------------------------------------------------|
    {..pm..}                    {..pm..}
 Say I'm a liar, you knew.  You were a fool, but that's cool.  It's alright!

        A  Gm7 Am7  Am7 Gm7 A      A Gm7Am7 Gm7 A A
------------------------------------------------------|
-------------5-7------7-5---------------5-7--5--------|
----5--------5-7-5p0--7-5------5--------5-7--5--------|
-0h5-2-2-2-2-5-7----7-7-5-2-0h5-2-2-2-2-5-7--5-2-2----|
-----0-0-0-0--------------0-----0-0-0-0--------0-0----|
------------------------------------------------------|
    {..pm..}                    {..pm..}
 Say I'm the devil, it's true.  Some can't accept, but I crept inside you.

CHOURSE
    C   A  A A A A A A A A A A   C    A  A A A A A A A A A A    C  A
----------------------------------------------------------------------------|
----------------------------------------------------------------------------|
-xx-5---2----------------------xx-5---2----------------------xx-5-----------|
-xx-5---2--2-2-2-2-2-2-2-2-2-2-xx-5---2--2-2-2-2-2-2-2-2-2-2-xx-5-----------|
-xx-3---0--0-0-0-0-0-0-0-0-0-0-xx-3---0--0-0-0-0-0-0-0-0-0-0-xx-3---0[~\-3]-|
-xx---3------------------------xx---3------------------------xx---3---------|
           {........pm........}              {........pm........} {Trem.down}
 So if a stranger sees you       Don't look in his eyes 'Cause it's Voodoo

        A  Gm7 Am7  Am7 Gm7 A      A Gm7Am7 Gm7 A A
------------------------------------------------------|
-------------5-7------7-5---------------5-7--5--------|
----5--------5-7-5p0--7-5------5--------5-7--5--------|
-0h5-2-2-2-2-5-7----7-7-5-2-0h5-2-2-2-2-5-7--5-2-2----|
-----0-0-0-0--------------0-----0-0-0-0--------0-0----|
------------------------------------------------------|
    {..pm..}                    {..pm..}
 Hey! Alright! Suddenly there's evil there.  Just around the corner.

        A  Gm7 Am7  Am7 Gm7 A      A Gm7Am7 Gm7 A A
------------------------------------------------------|
-------------5-7------7-5---------------5-7--5--------|
----5--------5-7-5p0--7-5------5--------5-7--5--------|
-0h5-2-2-2-2-5-7----7-7-5-2-0h5-2-2-2-2-5-7--5-2-2----|
-----0-0-0-0--------------0-----0-0-0-0--------0-0----|
------------------------------------------------------|
    {..pm..}                    {..pm..}
 Alright..  Uooo...

        A  Gm7 Am7  Am7 Gm7 A      A Gm7Am7 Gm7 A A
------------------------------------------------------|
-------------5-7------7-5---------------5-7--5--------|
----5--------5-7-5p0--7-5------5--------5-7--5--------|
-0h5-2-2-2-2-5-7----7-7-5-2-0h5-2-2-2-2-5-7--5-2-2----|
-----0-0-0-0--------------0-----0-0-0-0--------0-0----|
------------------------------------------------------|
    {..pm..}                    {..pm..}
Say ya, hidin' in the shadow, you'll learn.  You're fortune is free, I can
                                                  see it's no good.

        A  Gm7 Am7  Am7 Gm7 A      A Gm7Am7 Gm7 A A
------------------------------------------------------|
-------------5-7------7-5---------------5-7--5--------|
----5--------5-7-5p0--7-5------5--------5-7--5--------|
-0h5-2-2-2-2-5-7----7-7-5-2-0h5-2-2-2-2-5-7--5-2-2----|
-----0-0-0-0--------------0-----0-0-0-0--------0-0----|
------------------------------------------------------|
    {..pm..}                    {..pm..}
Never look back, never turn. Oh! It's a question of time 'till you're mine
                                                         and you learn..
CHOURSE

    C   A  A A A A A A A A A A   C    A  A A A A A A A A A A    C  A
-----------------------------------------------------------------------------|
-----------------------------------------------------------------------------|
-xx-5---2----------------------xx-5---2----------------------xx-5------------|
-xx-5---2--2-2-2-2-2-2-2-2-2-2-xx-5---2--2-2-2-2-2-2-2-2-2-2-xx-5------------|
-xx-3---0--0-0-0-0-0-0-0-0-0-0-xx-3---0--0-0-0-0-0-0-0-0-0-0-xx-3---0-[~\-3]-|
-xx---3------------------------xx---3------------------------xx---3----------|
           {........pm........}              {........pm........} {Trem.down}
 If a stranger sees you    Don't let him whisper his name 'cause it's Voodoo
                                                        Ohhh!
LEAD  (I broke it down into the phrasing Tony used)

------------------------------------------------------------------|
-7-7p5--7-7p5--7p5-5~---------------------------------------------|
-7-7p5--7-7p5--7p5-5~-7-7p5~--5h7p5-------5-----------------------|
------7------7---------------------7-5-5h7--7p5-------------------|
-----------------------------------------------7-5-5h7-3----------|
---------------------------------------------------------5(\3)----|
                                            (double picking)
     Alright!

-5h8p-------------------------------------------------------------|
-----8-5h8p5---------------------------------(5h8 tr~~)-----------|
------------7-5h7p5-----------------------5h7-----------7^(9`7)---|
-------------------7-5h7p5-------------5h7------------------------|
--------------------------7-3h5---3h5/7---------------------------|
-------------------------------3h5--------------------------------|

----8-5------------------------------------------|
-8-5---8-5-5h8p5-5-------------------------------|
----------------7-5-7-5-4h5p4-4-5-4--------------|
-----------------------------7------7\(3)--------|
-------------------------------------------------|
-------------------------------------------------|
                                       Yeah!

------------------------------------------|
---------------------------4h5p0----------|
----------4h5p5-------4h5p4-----4h5p4p0---|
-xx-7-55-7-----55-7-xx-----------------7--|
------------------------------------------|
------------------------------------------|
     {pm}    {pm}

-------5-8-5-5------------------------------|
------5-------8-5-----5---5-----------------|
-7^(9)-----------7^(9)-7-5-7-5-4-5-4--------|
------------------------------------5/7-----|
--------------------------------------------|
--------------------------------------------|

--------------------8-5----------------------------------------5-8p5---|
-------------------5---5h8p5----------------------------------5--------|
-7^(9m13)-7^(9m11)----------7-5-4h5p4--4h5p4-----------5-7^(9)---------|
--------------------------------------7-----7-5-----5-7----------------|
-----------------------------------------------7-5/7-------------------|
-----------------------------------------------------------------------|
Hey!      Ohhh!

--5------------------------------------------------------|
-8-8-5-----5-8-5-----5-----------------------------------|
------7^(9)-----7^(9)--7-5\4-5-4-7-5-4-4h5p4-------------|
--------------------------------------------5/7~(/3)-----|
---------------------------------------------------------|
---------------------------------------------------------|
                                            Hey!
           [f]         [mf]
----------------------------------------------------------------------------|
------------5--------x--5---------------------x-7-----------------------5---|
--7^(9`7)-5-5--------x--5---------------------x-7-----------------------5---|
------------5--------x--5---------------------x-7-----------------------5---|
----------------------------------------------------------------------------|
----------------------------------------------------------------------------|
              Alright!  Evil learks in your mind.  It hides in your soul.

---------------------------------------------------------------------------|
---------------------------------------------------------------------------|
-x-7-----------------x-5----------------------------------x-7--------------|
-x-7-----------------x-5----------------------------------x-7--------------|
-x-7-----------------x-5----------------------------------x-7--------------|
---------------------------------------------------------------------------|
 Alright! If you're sailing on a lonely ocean, if you're out on a winter sea

---------------------------------------------------------------------------|
---------------------------------------------------------------------------|
-x-5--------------------------------------------5-5-------2----------------|
-x-5--------------------------------------------5-5-------2----------------|
-x-5--------------------------------------------5-5--3p0--0----------------|
--------------------------------------------------------3------------------|
   If you're looking for a bit of sunshine, don't bother me!  I got Voodoo.

---------------------------------------------------------------------------|
---------------------------------------------------------------------------|
-x-5--------------------------------------------5-5-------2----------------|
-x-5--------------------------------------------5-5-------2----------------|
-x-5--------------------------------------------5-5--3p0--0----------------|
--------------------------------------------------------3------------------|
   If you're traveling the lonely highway; if you travel on the road at night
                  Don't come at me for comfort.  I'm a light! Yeah!

                                  [f]
----------------------------------------------|
----------------------------------------------|
----------------------------------------------|
-2-2-2-2-2-2-2-2-2-2-2-2-2-2-2-2-----2-2p0----|
-0-0-0-0-0-0-0-0-0-0-0-0-0-0-0-0--0h2-----2---|
----------------------------------------------|
{...............pm..............}
 Voooo dooo                      Give it out! Uhh.

[mf]                             [f]
-----------------------------------------------|
-----------------------------------------------|
-----------------------------------------------|
-2-2-2-2-2-2-2-2-2-2-2-2-2-2-2-2-(0h2p0 tr~~)--|
-0-0-0-0-0-0-0-0-0-0-0-0-0-0-0-0---------------|
-----------------------------------------------|
{...............pm..............}
 Voooo dooo   Vooo  dooooo                   Uhhh.

[mf>>f]
-----------------------------------|
-----------------------------------|
-----------------------------------|
-2-2-2-2-2-2-2-2-2-2-2-2-2-2-2-2---|
-0-0-0-0-0-0-0-0-0-0-0-0-0-0-0-0---|
-----------------------------------|
{...............pm..............}
Yeah!!

      A  Gm7 Am7  Am7 Gm7 A      A Gm7Am7 Gm7 A A
------------------------------------------------------|
-------------5-7------7-5---------------5-7--5--------|
----5--------5-7-5p0--7-5------5--------5-7--5--------|
-0h5-2-2-2-2-5-7----7-7-5-2-0h5-2-2-2-2-5-7--5-2-2----|
-----0-0-0-0--------------0-----0-0-0-0--------0-0----|
------------------------------------------------------|
    {..pm..}                    {..pm..}
                            Ohhhh!

      A  Gm7 Am7  Am7 Gm7 A      A Gm7Am7 Gm7 A A
------------------------------------------------------|
-------------5-7------7-5---------------5-7--5--------|
----5--------5-7-5p0--7-5------5--------5-7--5--------|
-0h5-2-2-2-2-5-7----7-7-5-2-0h5-2-2-2-2-5-7--5-2-2----|
-----0-0-0-0--------------0-----0-0-0-0--------0-0----|
------------------------------------------------------|
    {..pm..}                    {..pm..}
Alright!  Voodoo           Uh Huh                  Yes!

      A  Gm7 Am7  Am7 Gm7 A      A Gm7Am7 Gm7 A A
------------------------------------------------------|
-------------5-7------7-5---------------5-7--5--------|
----5--------5-7-5p0--7-5------5--------5-7--5--------|
-0h5-2-2-2-2-5-7----7-7-5-2-0h5-2-2-2-2-5-7--5-2-2----|
-----0-0-0-0--------------0-----0-0-0-0--------0-0----|
------------------------------------------------------|
    {..pm..}                    {..pm..}
 Give me a killer, they'll burn!  Never look back, never turn.

      A  Gm7 Am7  Am7 Gm7 A      A Gm7Am7 Gm7 A A
------------------------------------------------------|
-------------5-7------7-5---------------5-7--5--------|
----5--------5-7-5p0--7-5------5--------5-7--5--------|
-0h5-2-2-2-2-5-7----7-7-5-2-0h5-2-2-2-2-5-7--5-2-2----|
-----0-0-0-0--------------0-----0-0-0-0--------0-0----|
------------------------------------------------------|
    {..pm..}                    {..pm..}
Cry me a river, you'll learn.  Voodoo, Voodoo, Voodoo, oh!

      A  Gm7 Am7  Am7 Gm7 A      A Gm7Am7 Gm7 A A
------------------------------------------------------|
-------------5-7------7-5---------------5-7--5--------|
----5--------5-7-5p0--7-5------5--------5-7--5--------|
-0h5-2-2-2-2-5-7----7-7-5-2-0h5-2-2-2-2-5-7--5-2-2----|
-----0-0-0-0--------------0-----0-0-0-0--------0-0----|
------------------------------------------------------|
    {..pm..}                    {..pm..}
                         Alright!                 Never

      A    Gm7 Am7  Am7 Gm7 A      A Gm7Am7 Gm7 A A
-----------------------------------------------------------------------------|
-------------5-7------7-5---------------5-7--5-------------------------------|
----5--------5-7-5p0--7-5------5--------5-7--5-------------------------------|
-0h5-2-2-2-2-5-7----7-7-5-2-0h5-2-2-2-2-5-7--5-2-2---------------------------|
-----0-0-0-0--------------0-----0-0-0-0--------0-0-0-[~\-3]-0-[~\-3]0--[~\-3-|
-----------------------------------------------------------------------------|
    {..pm..}                    {..pm..}             {.......Trem.down......}
   run to the shadow!        Yeah

 A
---------------------------------------------|
---------------------------------------------|
---------------------------------------------|
-2-------------------------------------------|
-0-{Let Ring}--------------------------------|
---------------------------------------------|
 In everybodys mind, there's a little Voodoo  Ohh!

------------------------------12--------------------------------------|
-(10/)-15~--15p12-15p12-15p12---12h15--(12h15p12 tr~~)----------------|
-------------------------------------14---------------(12h14p12 tr~~)-|
----------------------------------------------------------------------|
----------------------------------------------------------------------|
----------------------------------------------------------------------|

---------------------------------------------------------------------------|
---------------------------------------------------------------------------|
---------------------------------------------------------------------------|
-(12h14p12 tr~~)-----------------------------------------------------------|
-----------------14-12-3^(4)/5~(\3)----------------------------------------|
---------------------------------------------------------------------------|
                              Hiden there in your heart, there's got to be
                                                   a little Voodoo

---------------12---13-12-----------------------------------------------------|
-15^(17~)-12-15--13------13-15p13---------------------------------------------|
---------------------------------14p12--12------------------------------------|
--------------------------------------14--14p12h14p12-------------------------|
-----------------------------------------------------14p12\7-5^(6`5^6`5)p3-5~-|
------------------------------------------------------------------------------|

---------------------------------------------------------------------------|
---------------------------------------------------------------------------|
---------------------------------------------------------------------------|
---------------------------------------------------------------------------|
----------------------------------17\\\\\\\\\\\\\3-------------------------|
---------------------------------------------------------------------------|
                                  {..Pick Scrape..}

 Even in the mind of the beholder, we all got some Voodoo.

 A            Gm7       A
------------------------------|
---------------5--------------|
-2-------------5--------2-----|
-2-------------5--------2-----|
-0----------------------0-----|
------------------------------|
 Yeah!    Ohh right!
Tap to rate this tab
 
# A B C D E F G H I J K L M N O P Q R S T U V W X Y Z