Song name
# A B C D E F G H I J K L M N O P Q R S T U V W X Y Z

Black Sabbath - Walk On Water tab

Help us improve GuitareTab! Take a short survey!
Walk On Water
Black Sabbath
Tabbed by: JC (wigga123@hotmail.com)

Intro

D   |---------|
A   |--12/5---|      Repeat x4
E   |---------|


Verse 
|--------------------------------------------------------------------------|
|--------------------------------------------------------------------------|
|-----8------------8------------8------------8-----------------------------|  
|--8----8------8-----8------9----9------9----9-----------------------------|   
|--------------------------------------------------------------------------| 
|--------------------------------------------------------------------------|


Pre Chorus
|----------------------------------------------------------------------------|
|----------------------------------------------------------------------------|
|----------------------------------------------------------------------------|
|---1-----3----------2-----4--------------1------3-----------2------4-----4--| 
|-0----0-----0----1-----1-----2---------0-----0------0----1-----1------2-----|
|----------------------------------------------------------------------------|

|----------------------------------------------------------------------------|
|----------------------------------------------------------------------------|
|----------------------------------------------------------------------------|
|------12h13h12---------12----------12----------12---------------------------|
|--0-----------------0--0--------0--0-------0--0--------0--------------------|

Chorus 

D   |---------|
A   |--12/5---|      Repeat x4
E   |---------|

Verse
|----------------------------------------------------------------------------|
|----------------------------------------------------------------------------|
|-----8------------8------------8------------8-------------------------------|
|--8----8------8-----8------9----9------9----9-------------------------------|
|----------------------------------------------------------------------------|

Pre Chorus
|----------------------------------------------------------------------------|
|----------------------------------------------------------------------------|
|----------------------------------------------------------------------------| 
|----1-----3----------2-----4---------------1------3-----------2------4----4-| 
|--0----0-----0----1-----1-----2---------0-----0------0----1-----1------2----|
|----------------------------------------------------------------------------|


|-----------------------------------------------------------------------------|
|-----------------------------------------------------------------------------|
|-----------------------------------------------------------------------------|
|-----------------------------------------------------------------------------|
|-----------------------------------------------------------------------------|
|------12h3p12---------12--------12------12-----------------------------------|
|--0------------0--0------0--0------0-------0---------------------------------|

Chorus 

D   |---------|
A   |--12/5---|      Repeat x4
E   |---------|



|-------------------------------------------------------------------|
|-------------------------------------------------------------------|
|-------------------------------------------------------------------| Repeat x4
|-----------7---------7----------7--------7-----9-------------------|
|-----------7---------7----------7--------7-----9-------------------|
|--5-5-5-5--5--5-5-5--5--5-5-5-5-5--5-5-5-5-----7-------------------|

|-------------------------------------------------------------------|
|-------------------------------------------------------------------|
|-------------------------------------------------------------------| Repeat x4
|-----------9---------9-----------9--------9---10-------------------|
|-----------9---------9-----------9--------9---10-------------------|
|--7-7-7-7--7--7-7-7--7--7-7-7-7--7--7-7-7-7---8--------------------|


Are you just a mirror standing in front of me
|--------------------------------------------------------------------------|
|--------------------------------------------------------------------------|
|-----8------------8------------8-----------8------------------------------|  
|--8-----8------8-----8------9----9------9-----9---------------------------|   
|--------------------------------------------------------------------------| 
|--------------------------------------------------------------------------|


Chorus 

D   |---------|
A   |--12/5---|      Repeat x4
E   |---------|

Then keep repeating the slide till the end.
Related for Walk On Water tab