Song name
# A B C D E F G H I J K L M N O P Q R S T U V W X Y Z

Black Sabbath - God Is Dead tab

-----------------------------------------------------------------------------
                      Black Sabbath - God Is Dead?
-----------------------------------------------------------------------------

Tuning - 1/2 step down

Intro

(Clean)
Eb|---------------------------------|
Bb|---------------------------------|
Gb|-------0-------0-------0-------0-|
Db|-----9-------8-------9-------8---|
Ab|---7-------7-------7-------7-----|
Eb|-0-------0-------0-------0-------|

Eb|----------------------------------|
Bb|----------------------------------|
Gb|-------0-------0--------0-------0-|
Db|-----9-------8-------10-------8---|
Ab|---7-------7-------7--------7-----|
Eb|-0-------0-------0--------0-------|

Eb|---------------------------------|
Bb|---------------------------------|
Gb|-------0-------0-------0-------0-|
Db|-----9-------8-------9-------8---|
Ab|---7-------7-------7-------7-----|
Eb|-0-------0-------0-------0-------|

Eb|----------------------------------|
Bb|----------------------------------|
Gb|-------0-------0--------0-------0-|
Db|-----9-------8-------10-------8---|
Ab|---7-------7-------7--------7-----|
Eb|-0-------0-------0--------0-------|

(Distortion)
Eb|----------------------------------|
Bb|----------------------------------|
Gb|----------------------------------|
Db|-12-14--------12-14------16-17----|
Ab|-12-14--------12-14------16-17----|
Eb|-10-12--------10-12------14-15----|

Eb|----------------------------------------|
Bb|----------------------------------------|
Gb|----------------------------------------|
Db|-12-14--------12-14------16-17----12----|
Ab|-12-14--------12-14------16-17----12----|
Eb|-10-12--------10-12------14-15----10----|

Eb|----------------------------------|
Bb|----------------------------------|
Gb|----------------------------------|
Db|-12-14--------12-14------16-17----|
Ab|-12-14--------12-14------16-17----|
Eb|-10-12--------10-12------14-15----|

Eb|--------------------------------------|
Bb|--------------------------------------|
Gb|--------------------------------------|
Db|-12-14--------12-14------9-8----5-----|
Ab|-12-14--------12-14------9-8----5-----|
Eb|-10-12--------10-12------7-6----3-----|

Verse 1

(Clean)
Eb|---------------------------------|
Bb|---------------------------------|
Gb|-------0-------0-------0-------0-|
Db|-----9-------8-------9-------8---|
Ab|---7-------7-------7-------7-----|
Eb|-0-------0-------0-------0-------|

Eb|---------------------------------|---------------------------------|
Bb|---------------------------------|---------------------------------|
Gb|-------0-------0-------0-------0-|-------0-------0-------0-------0-| x4
Db|-----9-------8-------9-------8---|-----9-------8-------9-------8---|
Ab|---7-------7-------7-------7-----|---7-------7-------7-------7-----|
Eb|-0-------0-------0-------0-------|-0-------0-------0-------0-------|

Pre Chorus 1

(Distortion)
Eb|-----------------------------|---------------------------|
Bb|-----------------------------|---------------------------|
Gb|-----------------------------|---------------------------|
Db|-10----10----10----10--10-10-|-9-----9---9---5-----4-----|
Ab|-10----10----10----10--10-10-|-9-----9---9---5-----4-----|
Eb|--8-----8-----8-----8---8--8-|-7-----7---7-5-3-----2-----|

Chorus 1

Eb|-----------------------------|-----------------------------|
Bb|-----------------------------|-----------------------------|
Gb|-----------------------------|-----------------------------|
Db|-----------------------------|-----------------------------|
Ab|--------7-6-5----------------|--------7-6-5----------------|
Eb|-0----0-------7-6~~~-0-6-7~~~|-0----0-------7-6~~~-0-6-5~~~|

Eb|-----------------------------|---------------------------|
Bb|-----------------------------|---------------------------|
Gb|-----------------------------|---------------------------|
Db|-10----10----10----10--10-10-|-9-----9---9---5-----4-----|
Ab|-10----10----10----10--10-10-|-9-----9---9---5-----4-----|
Eb|--8-----8-----8-----8---8--8-|-7-----7---7-5-3-----2-----|

Eb|-----------------------------|-----------------------------|
Bb|-----------------------------|-----------------------------|
Gb|-----------------------------|-----------------------------|
Db|-----------------------------|-----------------------------|
Ab|--------7-6-5----------------|--------7-6-5----------------|
Eb|-0----0-------7-6~~~-0-6-7~~~|-0----0-------7-6~~~-0-6-5~~~|

Verse 2

(Clean)
Eb|---------------------------------|
Bb|---------------------------------|
Gb|-------0-------0-------0-------0-|
Db|-----9-------8-------9-------8---|
Ab|---7-------7-------7-------7-----|
Eb|-0-------0-------0-------0-------|

Eb|---------------------------------|------------------------------------|
Bb|---------------------------------|------------------------------------|
Gb|-------0-------0-------0-------0-|-------0----------0-------0-------0-| x4
Db|-----9-------8-------9-------8---|-----9---------10-------9-------8---|
Ab|---7-------7-------7-------7-----|---7-------7/9--------7-------7-----|
Eb|-0-------0-------0-------0-------|-0-------0----------0-------0-------|

(Distortion)
Eb|-------------------------------------------------------|
Bb|-------------------------------------------------------|
Gb|-----0-------------------------------------------------|
Db|-------------10-------12------12------12------16-17----|
Ab|---9---9---9-10-------12------12------12------16-17----|
Eb|-8-------8----8---5-5-10------10------10------14-15----|
                     * *

Eb|------------------------------------------------------------|
Bb|------------------------------------------------------------|
Gb|-----0------------------------------------------------------|
Db|-------------10-------12------12------12--12-12-16-17-16-12-|
Ab|---9---9---9-10-------12------12------12--12-12-16-17-16-12-|
Eb|-8-------8----8---5-5-10------10------10--10-10-14-15-14-10-|
                     * *

Eb|-------------------------------------------------------|
Bb|-------------------------------------------------------|
Gb|-----0-------------------------------------------------|
Db|-------------10-------12------12------12------17-14----|
Ab|---9---9---9-10-------12------12------12------17-14----|
Eb|-8-------8----8---5-5-10------10------10------15-12----|
                     * *

Eb|-----------------------------------|
Bb|-----------------------------------|
Gb|-----------------------------------| x12
Db|---------14-17------------14-13----|
Ab|-7---7---14-17----7---7---14-13----|
Eb|-0---0-0-12-15----0---0-0-12-11----|

Pre Chorus 2

(Distortion)
Eb|-----------------------------|---------------------------|
Bb|-----------------------------|---------------------------|
Gb|-----------------------------|---------------------------|
Db|-10----10----10----10--10-10-|-9-----9---9---5-----4-----|
Ab|-10----10----10----10--10-10-|-9-----9---9---5-----4-----|
Eb|--8-----8-----8-----8---8--8-|-7-----7---7-5-3-----2-----|

Chorus 2

Eb|-----------------------------|-----------------------------|
Bb|-----------------------------|-----------------------------|
Gb|-----------------------------|-----------------------------|
Db|-----------------------------|-----------------------------|
Ab|--------7-6-5----------------|--------7-6-5----------------|
Eb|-0----0-------7-6~~~-0-6-7~~~|-0----0-------7-6~~~-0-6-5~~~|

Eb|-----------------------------|---------------------------|
Bb|-----------------------------|---------------------------|
Gb|-----------------------------|---------------------------|
Db|-10----10----10----10--10-10-|-9-----9---9---5-----4-----|
Ab|-10----10----10----10--10-10-|-9-----9---9---5-----4-----|
Eb|--8-----8-----8-----8---8--8-|-7-----7---7-5-3-----2-----|

Eb|-----------------------------|-----------------------------|
Bb|-----------------------------|-----------------------------|
Gb|-----------------------------|-----------------------------|
Db|-----------------------------|-----------------------------|
Ab|--------7-6-5----------------|--------7-6-5----------------|
Eb|-0----0-------7-6~~~-0-6-7~~~|-0----0-------7-6~~~-0-6-5~~~|

Bridge

Eb|----------------------------------|
Bb|----------------------------------|
Gb|----------------------------------|
Db|-12-14--------12-14------16-17----|
Ab|-12-14--------12-14------16-17----|
Eb|-10-12--------10-12------14-15----|

Eb|----------------------------------------|
Bb|----------------------------------------|
Gb|----------------------------------------|
Db|-12-14--------12-14------16-17----12----|
Ab|-12-14--------12-14------16-17----12----|
Eb|-10-12--------10-12------14-15----10----|

Eb|----------------------------------|
Bb|----------------------------------|
Gb|----------------------------------|
Db|-12-14--------12-14------16-17----|
Ab|-12-14--------12-14------16-17----|
Eb|-10-12--------10-12------14-15----|

Eb|--------------------------------------|
Bb|--------------------------------------|
Gb|--------------------------------------|
Db|-12-14--------12-14------9-8----5-----|
Ab|-12-14--------12-14------9-8----5-----|
Eb|-10-12--------10-12------7-6----3-----|

Interlude

Eb|---------------------------------------------|
Bb|---------------------------------------------|
Gb|---------------------------------------------|
Db|---------------5-----------------------------|
Ab|-7-----7p5-7~~~--7p5-----5-------------------|
Eb|-0---0---------------7~~~--7p6-5~~~0-3h5-0---|

Eb|-----------------------------------------|
Bb|-----------------------------------------|
Gb|-----------------------------------------|
Db|-----------5-----------------------------|
Ab|---7p5-7~~~--7p5-----5-------------------|
Eb|-0---------------7~~~--7p6-5~~~0-3h5-0---|

Eb|---------------------------------------|
Bb|---------------------------------------|
Gb|---------------------------------------|
Db|-----------5---------------------------|
Ab|---7p5-7~~~--7p5-----5-----------------|
Eb|-0---------------7~~~--7p6-5~~~0-3h5---|

Verse 3

Eb|--------------------------------------|
Bb|--------------------------------------|
Gb|--------------------------------------|
Db|------5--------5--------5--------7-/8-|
Ab|-2--2-5---2--2-5-2----2-5---2--2-7-/8-|
Eb|-0--0-3---0--0-3-0----0-3---0--0-5-/6-|
    *  *     *  *   *    *     *  *

Eb|--------------------------------------|
Bb|--------------------------------------|
Gb|--------------------------------------|
Db|------5--------5--------5--------8-\7-|
Ab|-2--2-5---2--2-5-2----2-5---2--2-8-\7-|
Eb|-0--0-3---0--0-3-0----0-3---0--0-6-\5-|
    *  *     *  *   *    *     *  *

Eb|--------------------------------------|
Bb|--------------------------------------|
Gb|--------------------------------------|
Db|------5--------5--------5--------7-/8-|
Ab|-2--2-5---2--2-5-2----2-5---2--2-7-/8-|
Eb|-0--0-3---0--0-3-0----0-3---0--0-5-/6-|
    *  *     *  *   *    *     *  *

Eb|--------------------------------------|
Bb|--------------------------------------|
Gb|--------------------------------------|
Db|------5--------5--------5--------8-\7-|
Ab|-2--2-5---2--2-5-2----2-5---2--2-8-\7-|
Eb|-0--0-3---0--0-3-0----0-3---0--0-6-\5-|
    *  *     *  *   *    *     *  *

Eb|--------------------------------------|
Bb|--------------------------------------|
Gb|--------------------------------------|
Db|------5--------5--------5--------7-/8-|
Ab|-2--2-5---2--2-5-2----2-5---2--2-7-/8-|
Eb|-0--0-3---0--0-3-0----0-3---0--0-5-/6-|
    *  *     *  *   *    *     *  *

Eb|--------------------------------------|
Bb|--------------------------------------|
Gb|--------------------------------------|
Db|------5--------5--------5--------8-\7-|
Ab|-2--2-5---2--2-5-2----2-5---2--2-8-\7-|
Eb|-0--0-3---0--0-3-0----0-3---0--0-6-\5-|
    *  *     *  *   *    *     *  *

Eb|--------------------------------------|
Bb|--------------------------------------|
Gb|--------------------------------------|
Db|------5--------5--------5--------7-/8-|
Ab|-2--2-5---2--2-5-2----2-5---2--2-7-/8-|
Eb|-0--0-3---0--0-3-0----0-3---0--0-5-/6-|
    *  *     *  *   *    *     *  *

Eb|--------------------------------------|
Bb|--------------------------------------|
Gb|--------------------------------------|
Db|------5--------5--------5--------8-\7-|
Ab|-2--2-5---2--2-5-2----2-5---2--2-8-\7-|
Eb|-0--0-3---0--0-3-0----0-3---0--0-6-\5-|
    *  *     *  *   *    *     *  *

Bridge A

Eb|---------------------------------------------|
Bb|---------------------------------------------|
Gb|---------------------------------------------|
Db|---------------5-----------------------------|
Ab|-7-----7p5-7~~~--7p5-----5-------------------|
Eb|-0---0---------------7~~~--7p6-5~~~0-3h5-0---|

Eb|-----------------------------------------|
Bb|-----------------------------------------|
Gb|-----------------------------------------|
Db|-----------5-----------------------------|
Ab|---7p5-7~~~--7p5-----5-------------------|
Eb|-0---------------7~~~--7p6-5~~~0-3h5-0---|

Eb|---------------------------------------|
Bb|---------------------------------------|
Gb|---------------------------------------|
Db|-----------5---------------------------|
Ab|---7p5-7~~~--7p5-----5-----------------|
Eb|-0---------------7~~~--7p6-5~~~0-3h5---|

Bridge B

Eb|----------------------------------------------|
Bb|----------------------------------------------|
Gb|----------------------------------------------| x2
Db|-14-----16-17-----17/19---12---------12-14----|
Ab|-14-----16-17-----17/19---12---------12-14----|
Eb|-12-----14-15-----15/17---10---------10-12----|

Guitar Solo
(Rhythm guitar repeats Bridge B riff)

Eb|------------------------------------------------------------------|
Bb|-----------------15-----------------------------------------------|
Gb|------10---12-------16~~~~~~-14b16--14b16--14b16---12-14-12b------|
Db|-14~~~-------------------------------------------------------14~~~|
Ab|------------------------------------------------------------------|
Eb|------------------------------------------------------------------|

Eb|-------------------------------------------------------------------------|
Bb|----15--15----15-----15--------------------------------------------------|
Gb|-14b16-----14b16--14b16--14-12-14--14b16-14-12~~~11-12-11---------12-----|
Db|----------------------------------------------------------12-9-12----14~~|
Ab|-------------------------------------------------------------------------|
Eb|-------------------------------------------------------------------------|

After solo

Eb|---------------------------------------------|
Bb|---------------------------------------------|
Gb|---------------------------------------------|
Db|---------------5-----------------------------|
Ab|-7-----7p5-7~~~--7p5-----5-------------------|
Eb|-0---0---------------7~~~--7p6-5~~~0-3h5-0---|

Eb|---------------------------------------|
Bb|---------------------------------------|
Gb|---------------------------------------|
Db|-----------5---------------------------|
Ab|---7p5-7~~~--7p5-----5-----------------|
Eb|-0---------------7~~~--7p6-5~~~0-3h5---|

Eb|---------------------------------------|
Bb|---------------------------------------|
Gb|---------------------------------------|
Db|-----------5---------------------------|
Ab|---7p5-7~~~--7p5-----5-----------------|
Eb|-0---------------7~~~--7p6-5~~~0-3h5---|

Pre Chorus 3

(Distortion)
Eb|-----------------------------|---------------------------|
Bb|-----------------------------|---------------------------|
Gb|-----------------------------|---------------------------|
Db|-10----10----10----10--10-10-|-9-----9---9---5-----4-----|
Ab|-10----10----10----10--10-10-|-9-----9---9---5-----4-----|
Eb|--8-----8-----8-----8---8--8-|-7-----7---7-5-3-----2-----|

Chorus 3

Eb|-----------------------------|-----------------------------|
Bb|-----------------------------|-----------------------------|
Gb|-----------------------------|-----------------------------|
Db|-----------------------------|-----------------------------|
Ab|-7------7-6-5----------------|-7------7-6-5----------------|
Eb|-0----0-------7-6~~~-0-6-7~~~|-0----0-------7-6~~~-0-6-5~~~|

Eb|-----------------------------|---------------------------|
Bb|-----------------------------|---------------------------|
Gb|-----------------------------|---------------------------|
Db|-10----10----10----10--10-10-|-9-----9---9---5-----4-----|
Ab|-10----10----10----10--10-10-|-9-----9---9---5-----4-----|
Eb|--8-----8-----8-----8---8--8-|-7-----7---7-5-3-----2-----|

Eb|-----------------------------|-----------------------------|
Bb|-----------------------------|-----------------------------|
Gb|-----------------------------|-----------------------------|
Db|-----------------------------|-----------------------------|
Ab|-7------7-6-5----------------|-7------7-6-5----------------|
Eb|-0----0-------7-6~~~-0-6-7~~~|-0----0-------7-6~~~-0-6-5~~~|

Eb|-----------------------------|-----------------------------|
Bb|-----------------------------|-----------------------------|
Gb|-----------------------------|-----------------------------|
Db|-----------------------------|-----------------------8-7---|
Ab|-7------7-6-5----------------|-7------7-6-5----------8-7---|
Eb|-0----0-------7-6~~~-0-6-7~~~|-0----0-------7-6~~~-0-6-5---|
Tap to rate this tab
 
# A B C D E F G H I J K L M N O P Q R S T U V W X Y Z