Song name
# A B C D E F G H I J K L M N O P Q R S T U V W X Y Z

Black Sabbath - Digital Bitch tab

          Digital Bitch
          Black Sabbath - Born Again (1983)

          |----------------------------------------------------------
          |----------------------------------------------------------
          |------2-----5-----4-7-5h7p5p4-----2-----5-----4-7-5-------
          |------2-----5-----4-7-5h7p5p4-----2-----5-----4-7-5-------
          |--0-0---0-0---0-0-------------0-0---0-0---0-0-------------
          |----------------------------------------------------------

          "keep away from..."
          |--------------------------||----------------------------
          |--------------------------||----------------------------
          |------------------5--7----||---5---7-------5---7--------
          |------------------5--7----||---5---7-------5---7--------
          |-5-5-5-5-5-5-5-5--3--5----||---3---5-------3---5--------
          |-3-3-3-3-3-3-3-3----------||----------------------------

          "maybe she could..."
          |----------------------------------------------------------
          |----------------------------------------------------------
          |--7----10-----9-----8----7----10-----9-----8--------------
          |--7----10-----9-----8----7----10-----9-----8--------------
          |--5-----8-----7-----6----5-----8-----7-----6--------------
          |----------------------------------------------------------
Tap to rate this tab
 
# A B C D E F G H I J K L M N O P Q R S T U V W X Y Z