Song name
# A B C D E F G H I J K L M N O P Q R S T U V W X Y Z

Black Sabbath - Paranoid tab

Black Sabbath - Paranoid (Improvised Solo)

E|-----------------------------------------------------|
B|-----------------------------------------------------|
G|--9b7--9--9--7--9b7----------------------------------|
D|---------------------9p7--5h7--5h7----------5--------|
A|------------------------------------5b7--7-----7--7--|
E|-----------------------------------------------------|



E|-----------------------------------------------------------------|
B|----------------------------8--10b8--10b8--10--8--------8--------|
G|------------7h9--9--7h9--9------------------------9--9-----9--9--|
D|--5h7--7/9-------------------------------------------------------|
A|-----------------------------------------------------------------|
E|-----------------------------------------------------------------|



E|---------------------------------------------17b17b17--15--------------------|
B|--12--12--15--12--15/17--15--17--15--17--15----------------17--17b17b15--17--|
G|-----------------------------------------------------------------------------|
D|-----------------------------------------------------------------------------|
A|-----------------------------------------------------------------------------|
E|-----------------------------------------------------------------------------|



E|-------------------------------------------------------------------------------------|
B|-----------------------------12--14--12--14b12--14-----------------------------------|
G|--12h14--12--14--12--14--12-------------------------12h14--14--14--------------------|
D|-------------------------------------------------------------------12h14--14--14-----|
A|-------------------------------------------------------------------------------------|
E|-------------------------------------------------------------------------------------|



E|--------------------------|
B|--------------------------|
G|--12----------12----------|
D|------14--14------14--14--|
A|--------------------------|
E|--------------------------|
Tap to rate this tab
# A B C D E F G H I J K L M N O P Q R S T U V W X Y Z