Song name
# A B C D E F G H I J K L M N O P Q R S T U V W X Y Z

Black Sabbath - Dying For Your Love tab

Black Sabbath - Dying for Love - Cross Purposes (1994)

This is my favorite Sabbath ballad. Listen to the song for timing.

Tuned down 1/2 step - D#,G#,C#,F#,A#,D#

Legend:

  ^ - Bend up, h - Hammer on, p - pull off, ( ) - ghost note, 
  SH & AH - Harmonics

Solo 1 (Distortion):

|-------11--|-------|------------|---------------|------------|
|----10^----|--10^--|--------11--|--10~-11--13^--|--11~~~~~~~~|
|-----------|-------|------------|---------------|------------|
|-----------|-------|-----10^----|---------------|------------|
|-----------|-------|------------|---------------|------------|
|-----------|-------|------------|---------------|------------|

|---------------|----------------|--------|--|--10------10-------------|
|-----10-13-10--|--11------------|--------|--|-----11------11-13-10^~--|
|---------------|-----12^-10h12--|--12^---|--|--------12---------------|
|---------------|----------------|--------|--|-------------------------|
|---------------|----------------|--------|--|-------------------------|
|---------------|----------------|--------|--|-------------------------|

|-------------|----------------|---------------------|--|----------------|
|---------13--|--11~--11p8-10--|---------11-10-------|--|----------------|
|----12-------|----------------|--10----------10-----|--|------SH---]----|
|------12-----|----------------|-----10~--------10^--|--|------10--8-----|
|-------------|----------------|---------------------|--|------------10--|
|-------------|----------------|---------------------|--|----------------|

|------------------|---------------------------------------|---------------|
|------------------|---------------------------------------|---------------|
|--AH--------------|--10-12--(10)--------------------------|----------12-12|
|--10^-10~~-10h12--|-------------12--(10)-10-12-10-8-10-8--|-(10)--12------|
|------------------|---------------------------------------|---------------|
|------------------|---------------------------------------|---------------|

|-------------------------------------|---------------------------------|
|-------------------------------------|---------------------------------|
|--14^-14-12-15-14-12-------15-14-12--|-----------10--------------------|
|--------------------15-(12)----------|--15-(12)----12-10-11-10\8-7-10--|
|-------------------------------------|---------------------------------|
|-------------------------------------|---------------------------------|

|------------------------|
|------------------------|
|------------------------|
|--8~~----8-10^-8--------|
|-------10-------10-9-8--|
|------------------------|

Riff 1 (Clean):

|-------------------|-------------------|
|---------1----1----|--------1---1---1--|
|----0-(0)---0---0--|----3-0-------0----|
|-------------------|--1-------3--------|
|--3----------------|-------------------|
|-------------------|-------------------|

Riff 2 (Clean):
                                                   1st time      2nd time
|--------0-------|---------0-------|-------------| |----------| |----------|
|-----------1----|-------3----3----|-------0-----| |----------| |----------|
|------2------2--|-----5--------5--|-----2-------| |----------| |----------|
|----2-----------|--5--------------|--3------0---| |----------| |-------5--|
|--0-------------|-----------------|-------------| |--3---2---| |--3---2---|
|----------------|-----------------|-------------| |-------3--| |----------|

Riff 3 and Solo 2 (Distortion):

|---------------|--------------|---------------|--| And repeat first 2 bars
|---------------|--------------|---------------|--| once
|--2-2-2---2----|---2---2-0~~--|--2-2-2---2----|--|
|--2-2-2-0-2----|---2-0-2-x~~--|--2-2-2-0-2----|--|
|--0-0-0-x-0----|---0-x-0-3~~--|--0-0-0-x-0----|--|
|--------3------|-----3--------|--------3------|--|

|---------------------|---------|------------|------------------------|
|---------------------|---------|---------7--|--8-10--10/h12-10-7-----|
|--2-2-2---2----------|---------|-------9----|---------------------7--|
|--2-2-2-0-2---2-(4)--|--5---7--|-----9------|------------------------|
|--0-0-0-x-0---0--2---|--3---5--|--7---------|------------------------|
|--------3------------|---------|------------|------------------------|

|--------------|------------------10-------|------------------|
|-----------7--|--8-10--10h12-10-----(12)--|--12~~---------7--|
|--9~~----9----|---------------------------|-------------9----|
|-------9------|---------------------------|-----------9------|
|--------------|---------------------------|------------------|
|--------------|---------------------------|------------------|

|------------------------|--------------|----------------------10-9--|
|--8-10--10/h12-10-7-----|-----------7--|--8---10---10/h12-10--------|
|---------------------7--|--9~~----9----|----------------------------|
|------------------------|-------9------|----------------------------|
|------------------------|--------------|----------------------------|
|------------------------|--------------|----------------------------|

|--8~~~~--|
|---------|
|---------|
|---------|
|---------|
|---------|

Solo 3 (Distortion):

|------------------------|---------------------|-------------|
|------------------------|---------------------|-------------|
|------------------------|---------------------|--9-12~~~~~--|
|------------------------|---------------------|-------------|
|---------------------9--|--10~~--10/12-12-10--|-------------|
|--12-12-12-10-12--12----|---------------------|-------------|

|---------------|------------|------------|------------17-17--|
|---------------|--10^--12^--|--13^--17^--|--18^--17----------|
|--10-9-10------|--12---14---|--15---19---|--20---------------|
|----------12~--|------------|------------|-------------------|
|---------------|------------|------------|-------------------|
|---------------|------------|------------|-------------------|

|--20^--17--------------------|-----------------17-----------17------------|
|----------20-20^-^-17-20p17--|--20p17-20p17-20^---20p17-20^----20p17-20^~-|
|-----------------------------|--------------------------------------------|
|-----------------------------|--------------------------------------------|
|-----------------------------|--------------------------------------------|
|-----------------------------|--------------------------------------------|

|--20^~-20---19-17---------|------------5---------|------------------------|
|------------------20-20^--|--17----------8~------|-------5h8p5-5h8p5------|
|--------------------------|----19-17~------------|--5-7^-------------7-5--|
|--------------------------|-------------------7--|------------------------|
|--------------------------|----------------------|------------------------|
|--------------------------|----------------------|------------------------|

|-------------------------|-----------------------------|
|-------------------------|-----------------------------|
|--7^--7^-5-7^--7^-5---5--|--7^--7^-5---5-7^--7^-5---5--|
|--------------------7----|-----------7------------7----|
|-------------------------|-----------------------------|
|-------------------------|-----------------------------|

|-------5------------------------|---------------------5-----5------|
|-----5--------------------------|-------------------5-----5---8p5--|
|--7^-----7^-5---5-7^--7^-5---5--|--7^--7^-5---5-7^-----7^----------|
|--------------7------------7----|-----------7----------------------|
|--------------------------------|----------------------------------|
|--------------------------------|----------------------------------|

|-----------------------------| Repeat last bar once more. 
|-----------------------------|
|--7^--7^-5---6-7^--7^-5---5--| 
|-----------7------------7----|                            END, Enjoy
|-----------------------------|
|-----------------------------|
Tap to rate this tab
# A B C D E F G H I J K L M N O P Q R S T U V W X Y Z