Song name
# A B C D E F G H I J K L M N O P Q R S T U V W X Y Z

Black Sabbath - Virtual Death tab

Help us improve GuitareTab! Take a short survey!
Band:     Black Sabbath    
Song:     Virtual Death
Album:    Cross Purposes
Tabed by: thelordofguitar
Key:
\    - slide up
/    - slide down
x    - percussion mute
*    - artificial harmonic
~    - vibrato

After bass intro,...

Intro:
Eb||--------------------------------------------------||
Bb||--------------------------------------------------||
Gb||--------------------------------------------------||
Db||--7--7--7--7---7---------7--7--7--7---------------||
Ab||--x--x--x--x---x--8-8-7--x--x--x--x-------9---7~--||
Eb||--5--5--5--5---5---------5--5--5--5---7\9---9-----||

Eb||--------------------------------------------------||
Bb||--------------------------------------------------||
Gb||--------------------------------------------------||
Db||--7--7--7--7---7---------7--7--7--7---7-7-9-10----||
Ab||--x--x--x--x---x--8-8-7--x--x--x--x---x-x-x-x-----||
Eb||--5--5--5--5---5---------5--5--5--5---5-5-7-8-----||


 "Reach Out And Take For Me..."
Eb||--------------------------------------------------||
Bb||--------------------------------------------------||
Gb||--------------------------------------------------||
Db||--7--7--7--7---7---------7--7--7--7---------------||\
Ab||--x--x--x--x---x--8-8-7--x--x--x--x-------9---7~--|| \
Eb||--5--5--5--5---5---------5--5--5--5---7\9---9-----||  \ 2x
                                                          /
Eb||--------------------------------------------------|| /
Bb||--------------------------------------------------||/
Gb||--------------------------------------------------||
Db||--7--7--7--7---7---------7--7--7--7---7-7-9-10----||
Ab||--x--x--x--x---x--8-8-7--x--x--x--x---x-x-x-x-----||
Eb||--5--5--5--5---5---------5--5--5--5---5-5-7-8-----||


 "I'm Sick And Tired..."         2x
Eb||----||------------------------||------------------------||
Bb||----||------------------------||------------------------||
Gb||--8-||------------------------||------------------------||
Db||--x-||------------------------||------------------------||
Ab||--6-||-9-8-7----7----7--------||-9-8-7----7-6-5---------||
Eb||----||------------------7-8-9-||-----------------7-6-5--||


Eb||----------------------------------------------------||
Bb||----------------------------------------------------||
Gb||------------------10-10-9---------------------------||
Db||--7--7--7--7---7--x--x--x--7--7--7--7---------------||
Ab||--x--x--x--x---x--8--8--7--x--x--x--x-------9---7~--||
Eb||--5--5--5--5---5-----------5--5--5--5---7\9---9-----||

Eb||----------------------------------------------------||
Bb||----------------------------------------------------||
Gb||------------------10-10-9---------------------------||
Db||--7--7--7--7---7--x--x--x--7--7--7--7---7-7-9-10~---||
Ab||--x--x--x--x---x--8--8--7--x--x--x--x---x-x---------||
Eb||--5--5--5--5---5-----------5--5--5--5---5-5---------||

 "This Spark Of Natures Fire..."
Eb||-----------------------------------------------------||
Bb||-----------------------------------------------------||
Gb||-----------------------------------------------------||
Db||--7--7--7--7---7------------7--7--7--7---------------||
Ab||--x--x--x--x---x--10-10-9~--x--x--x--x-------9---7~--||
Eb||--5--5--5--5---5------------5--5--5--5---7\9---9-----||

Eb||----------------------------------------------------||
Bb||----------------------------------------------------||
Gb||------------------10-10-9---------------------------||
Db||--7--7--7--7---7--x--x--x--7--7--7--7---7-7-9-10~---||
Ab||--x--x--x--x---x--8--8--7--x--x--x--x---x-x-x-x-----||
Eb||--5--5--5--5---5-----------5--5--5--5---5-5-7-8~----||


 "I'm Sick And Tired..."         2x
Eb||----||------------------------||------------------------||
Bb||----||------------------------||------------------------||
Gb||--8-||------------------------||------------------------||
Db||--x-||------------------------||------------------------||
Ab||--6-||-9-8-7----7----7--------||-9-8-7----7-6-5---------||
Eb||----||------------------7-8-9-||-----------------7-6-5--||


Eb||---------------------------------------------------------||
Bb||---------------------------------------------------------||
Gb||-----5-----4----------------------5----------------------|| 2x
Db||--7--x--6--4----------------7-----x--6--5----------------||
Ab||--x--3--x--2---2-2-2-2-3-3--x--\\\3--x--5----------------||
Eb||--5-----4-------------------5--------4--3---3-3-3-3-4-4--||

In this part he used some weird effect.

 "People Always Tried To Change Me..."                 "Virtual Death !!!"
Eb||-----------------------------------------------------||
Bb||-----------------------------------------------------||
Gb||-----------------------------------------------------|| 4x
Db||-----------------------------------------------------||
Ab||----3---2---2-2-2-2-3-3----\\\3----------------------||
Eb||--5---4-------------------5-----4--3---3-3-3-3-4-4---||


Eb||----------------------------------------------------||
Bb||----------------------------------------------------||
Gb||------------------10-10-9---------------------------||
Db||--7--7--7--7---7--x--x--x--7--7--7--7---------------||
Ab||--x--x--x--x---x--8--8--7--x--x--x--x-------9---7~--||
Eb||--5--5--5--5---5-----------5--5--5--5---7\9---9-----||

Eb||----------------------------------------------------||
Bb||----------------------------------------------------||
Gb||------------------10-10-9---------------------------||
Db||--7--7--7--7---7--x--x--x--7--7--7--7---7-7-9-10~---||
Ab||--x--x--x--x---x--8--8--7--x--x--x--x---x-x---------||
Eb||--5--5--5--5---5-----------5--5--5--5---5-5---------||

 "You May Think This Existance..."
Eb||-----------------------------------------------------||
Bb||-----------------------------------------------------||
Gb||-----------------------------------------------------||
Db||--7--7--7--7---7------------7--7--7--7---------------||
Ab||--x--x--x--x---x--10-10-9~--x--x--x--x-------9---7*--||
Eb||--5--5--5--5---5------------5--5--5--5---7\9---9-----||

Eb||----------------------------------------------------||
Bb||----------------------------------------------------||
Gb||------------------10-10-9---------------------------||
Db||--7--7--7--7---7--x--x--x--7--7--7--7---7-7-9-10~---||
Ab||--x--x--x--x---x--8--8--7--x--x--x--x---x-x-x-x-----||
Eb||--5--5--5--5---5-----------5--5--5--5---5-5-7-8~----||

                                  "Virtual Death !!!"
Eb||----||------------------------||
Bb||----||------------------------||
Gb||--8-||------------------------||
Db||--x-||------------------------||
Ab||--6-||-9-8-7---7-6-5----------||
Eb||----||-----------------7-6-5--||

 "I'm Losing..."
Eb||---------------------------------------------------------||
Bb||---------------------------------------------------------||
Gb||-----5-----4----------------------5----------------------|| To the 
Db||--7--x--6--4----------------7-----x--6--5----------------|| end... 8x
Ab||--x--3--x--2---2-2-2-2-3-3--x--\\\3--x--5----------------||
Eb||--5-----4-------------------5--------4--3---3-3-3-3-4-4--||

 It's a very simple song.
 Second guitar play a little solo, but I don't know how.

 That's It. Enjoy...  
Related for Virtual Death tab