Song name
# A B C D E F G H I J K L M N O P Q R S T U V W X Y Z

Black Sabbath - All Moving Parts Stand Still tab

Help us improve GuitareTab! Take a short survey!
|------------------------------------------------------------------------|
|------------------------------------------------------------------------|
|-------5------------7---8p7--7p5-----------5-----------7---8p7--7p5-----|
|-------5------------7---8p7--7p5-----------5-----------7---8p7--7p5-----|
|--0-----------0---------------------0-------------0---------------------|
|------------------------------------------------------------------------|

(alnog w/ volcals)
|-------------------------------------------------------------|
|-------------------------------------------------------------|
|---------5------------------7-5-----------/9-7-5-7-/9--5-----|
|-7-7-7-7---7------7-5-7-7-7---------7-5-7----------------7---|
|-------------------------------------------------------------|
|-------------------------------------------------------------|


"Just like his..."
|-----------------------||-----------------------------------|
|-----------------------||-----------------------------------|
|--5--------7-------9---||--9------7------5------7-----------|
|--5--------7-------9---||--9------7------5------7-----------|
|--3--------5-------7---||--77777--55555--33333--55555-------|
|-----------------------||-----------------------------------|


|-------------------------------------------------------------|
|-------------------------------------------------------------|
|------------3~-----------5^-5-------------3~-----------5^-5--|
|----3-5-3-5--------3-5-3----------3-5-3-5--------3-5-3-------|
|--5--------------5--------------5--------------5-------------|
|-------------------------------------------------------------|


|------------------------------------------------------------|
|------------------------------------------------------------|
|------------------------------------------------------------|
|----7-----5-------4-----3----------7-----5-------4-----3----|
|--5---5-3---3---2---2-1---1------5---5-3---5---2---2-1---1--|
|------------------------------------------------------------|


|----------------------------------------------------------|
|----------------------------------------------------------|
|-9---9-9-9--12-12-12--------9---9-9-9--12-12-12-----------|
|-9---9-9-9--12-12-12--------9---9-9-9--12-12-12-----------|
|-7---7-7-7--10-10-10--------7---7-7-7--10-10-10-----------|
|----------------------------------------------------------|
Related for All Moving Parts Stand Still tab