Song name
# A B C D E F G H I J K L M N O P Q R S T U V W X Y Z

Black Sabbath - Cant Get Close Enough tab

Can't Get Close Enough
Black Sabbath - Forbidden


|--------------------------------------------------------------|
|--------------------------------------------------------------|
|--------------------------------------------------------------|
|--------------------------------------------------------------|
|------7-------7-------7-------7-------7-------7---------------|
|--5-5---4h5-4-4h5-5-5---4h5-4-4h5-5-5---4h5-4-4h5-5-----------|


|---------------------------------------------------------------|
|---------------------------------------------------------------|
|---------------------------------------------------------------|
|-----5-5-----5-------4-4-----4-------5-5-----5------4-4-----3--|
|-0-3-----3-3-----0-2-----2-2-----0-3-----3-3----0-2-----2-1----|
|---------------------------------------------------------------|


|---------------------------------------------------------------|
|---------------------------------------------------------------|
|-----2-----4-----5----/7--5-4\-------2-----4-----5-----7/9-9-9-|
|-----2-----4-----5----/7--5-4\-------2-----4-----5-----7/9-9-9-|
|-0-0---0-0---0-0---0-0-----------0-0---0-0---0-0---0-0---------|
|---------------------------------------------------------------|


cant get close enough to you...
|--------------------------------------------------------------|
|--------------------------------------------------------------|
|-5---------4--------5---------4--3----------------------------|
|-5---------4--------5---------4--3----------------------------|
|-3--5-3-0--2----0-2-3--5-3-0--2--1----------------------------|
|--------------------------------------------------------------|
Tap to rate this tab
# A B C D E F G H I J K L M N O P Q R S T U V W X Y Z