Song name
# A B C D E F G H I J K L M N O P Q R S T U V W X Y Z

Black Sabbath - Rusty Angels tab

Help us improve GuitareTab! Take a short survey!
|--------------------------------------------------||----------|
|--------------------------------------------------||----------|
|--7-----7-----7---5-----5-----5---4-----4-----4---||-0h2p0----|x 3
|--0-0-0-0-0-0-0-0-0-0-0-0-0-0-0-0-0-0-0-0-0-0-0-0-||-------4--|
|--------------------------------------------------||----------|
|--------------------------------------------------||----------|


|--------------------------------------------------------------|
|--------------------------------------------------------------|
|-7-----7-----7---5-----5-----5---4-----4-----4-------7--5--9--|
|-7-----7-----7---7-----7-----7---5-----5-----5----5--7--5--9--|
|-5-5-5-5-5-5-5-5-5-5-5-5-5-5-5-5-5-5-5-5-5-5-5-5--5--5--3--7--|
|--------------------------------------------------3-----------|


|--------------------------|
|--------------------------|
|-2-------/5---------------|
|-2-------/5--------5------|
|-0-------/3---(3p0)5------|
|-------------------3------|


|-------0-----------0---------------------0------------------|
|-----3---3-------3---3-----------------3---3----------------|
|---2-------2---2-------2-------------2-------2--------------|
|-0-----------3----------------------------------------------|
|---------------------------------0-1------------------------|
|-------------------------3-----3----------------------------|
|
|----------------------------------------------------------|
|----------------------------------------------------------|
|----------------------------------------------------------|
|-0------0-2-3---2---0-------------------------------------|
|---------------------------------0-1----------------------|
|-------------------------3-----3--------------------------|


|-----------------------------------------------------------|
|--------------------------5----------------------------5---|
|------3-----3-----------5----------3-----3-----------5-----|
|----3-----3-----------5----------3-----3-----------5-------|
|--1-----0-----1---1/3----------1-----0-----1---1/3---------|
|-----------------------------------------------------------|


|----------------------------------------------------------|
|----------------------------------------------------------|
|----------------------------------------------------------|
|------5--------------5---------------5--------------------|
|---3--3--5--8-----3--3--5---8-----3--3--5--8--------------|
|-0-1-----3--6--0--1-----3---6--0--1-----3--6--------------|
Related for Rusty Angels tab