Song name
# A B C D E F G H I J K L M N O P Q R S T U V W X Y Z

Black Sabbath - Immaculate Deception tab

Black Sabbath - Immaculate Deception - Cross Purposes (1994)

Tuning 1/2 step down

Riff 1         
|------------------|--------------------|
|------------------|--------------------| repeat
|--7-6-5-----------|--------------------| 
|--7-6-5--7-6-5----|--5---5-7--------7--|
|--5-6-3--7-6-5----|--5---5-7--------7--|
|---------5-4-3-0--|--3-0-3-5--0-3-0-5--|
             PM[ - - - - - ]         PM

Riff 2

|-----------------------------|
|-----------------------------|
|--2----------------5---------| repeat
|--2------5----3----5------5--|
|--0------5----3----3--3p0-5--|
|---------3----1-----------3--|

Riff 3

|----------------------------------------------------------|
|----------------------------------------------------------|
|--------7----2------0/2----4/5-----5-4-2--------7------2--|
|--3-----7----2------0/2----4/5-----5-4-2--3-----7------2--|
|--3-----5----0--0-0-----0-0----0-0--------3-----5------0--|
|--1---------------------------------------1---------------|

Riff 4

|--------------------|
|--------------------|
|--------------------|
|--3------5-------3--|
|--3------5-------3--|
|--1------3-------1--|

Listen to song for timing, Cheers

Tap to rate this tab
# A B C D E F G H I J K L M N O P Q R S T U V W X Y Z