Song name
# A B C D E F G H I J K L M N O P Q R S T U V W X Y Z

Black Sheep - The Choice Is Yours tab

----------------------------------------------------------------------------
		    The Choice Is Yours - Black Sheep
----------------------------------------------------------------------------
Tabbed by: Zach Pepsin
Email: EaglesDudeNFL@aol.com

Tuning: Standard (EADGBe)

Bass (plays throughout song)
e|-----------------------|
B|-----------------------|
G|-----------------------|
D|---------------1-0-----|
A|----3-2------1---------|
E|--3-----3--------------|



This guitar part also plays periodically
and in the chorus

e|----5--|-----------5--|
B|--5----|-5-6-5-6-5----|
G|-------|--------------|  2nd part
D|-------|--------------|  repeats
A|-------|--------------|
E|-------|--------------|



Here are the notes that play in the chorus
(they are all full bends)
e|--------------------------------------|
B|--9b---5b---9b---5b----9b---5b---9b---|
G|--------------------------------------|
D|--------------------------------------|
A|--------------------------------------|
E|--------------------------------------|
Tap to rate this tab
 
# A B C D E F G H I J K L M N O P Q R S T U V W X Y Z