Song name
# A B C D E F G H I J K L M N O P Q R S T U V W X Y Z

Black Sheep - Sheep Chease tab

e|---2---2---2---2---2----2---2---2----|
B|-----3-------3-------3---------3-----|
G|--2------2------0----------0---------|  (2 times and 4 times with palmut)
D|-------------------------------------|
A|-------------------------------------|
E|-------------------------------------|
    /palm______    /palm______    /palm______
|----------------------------------------------------------|
|----------------------------------------------------------|
|-7-7-7-7-7-7-7--------------------------------------------|
|-7-7-7-7-7-7-7--7-7-7-7-7-7-7--9-9-9-9-9-9-9--5-5-5-5-4-2-|
|-5-5-5-5-5-5-5--7-7-7-7-7-7-7--9-9-9-9-9-9-9--5-5-5-5-4-2-|
|----------------5-5-5-5-5-5-5--7-7-7-7-7-7-7--3-3-3-3-2-0-|

|-7-7-7-7-7-7-7---------------------------------------------|
|-7-7-7-7-7-7-7--7-7-7-7-7-7-7--5-5-5-5-5-5-5-5-5-5-5-5-5-5-|
|-5-5-5-5-5-5-5--7-7-7-7-7-7-7--5-5-5-5-5-5-5-5-5-5-5-5-5-5-|
|----------------5-5-5-5-5-5-5--3-3-3-3-3-3-3-3-3-3-3-3-3-3-|


For the end it's the same wit'nt palmut and the same rythme
Get piece and DESTROY!!!!!
Tap to rate this tab
# A B C D E F G H I J K L M N O P Q R S T U V W X Y Z