Song name
# A B C D E F G H I J K L M N O P Q R S T U V W X Y Z

Black Spiders - Put Love In Its Place tab

 Intro + Verse (played 6 times)

e|-----------------------------------------------------------------| |-----|
B|-------7---------------9---------------7-8---------------7-8-----| |-7---|
G|-----8---8-----------8---8-----------9-----9-----------9-----9---| |---9-|
D|---9-------9---9---9-------9---9---9---------9---9---9---------9-| |-----|
A|-9-----------9---8-----------8---7-------------7---7-------------| |-----|
E|-----------------------------------------------------------------| |-----|

Chorus

"If I Only Had A  Brain!"
e|--------------| |------| |-------------|
B|--------------| |------| |-------------|
G|--------------| |------| |-------------|
D|-9------------| |-2----| |-8-7-5---3-2-|
A|-9------------| |-2----| |-8-7-5---3-2-|
E|-7------------| |-0----| |-6-5-3-0-1-0-|


Bridge 

"You Tear My Heart Out..."
e|--------------------|
B|--------------------|
G|--------------------|
D|-2-5-9-12-----------|
A|-2-5-9-12-----------|
E|-0-3-7-10-----------|


It isn't finished yet and I'm not shure about some parts of this tab but I hope it helps you.
Tap to rate this tab
# A B C D E F G H I J K L M N O P Q R S T U V W X Y Z