Song name
# A B C D E F G H I J K L M N O P Q R S T U V W X Y Z

Black Star Riders - Bound For Glory tab

"Bound For Glory", off of "Black Star Riders"' debut album (amazing by the way)
So here is the main riff and the basic idea of the verse and chorus.
NOTE: this is my first tab but I thought I would help a fellow rocker out, I figured 
this much out by ear and I know it is not perfect but it is good enough to jam with.

OF COURSE I did not figure out the solo, it was done by the great Gorham! What do you 
think I am? A robot?
Enjoy! :)



[EPIC DRUMS]
0:01
E---------------------------------------------|
B--4-4-6-8------------------------------------|
G----------5----3-3-5-6-6p5---6b(8)6b(8)p5--5-|
D--------------6-6----------6--------------6--|
A---------------------------------------------|
E---------------------------------------------|

Repeat then right after the Ab (6th fret on D) go into this chord progression for the verse.

verse (the rhythm is DUN....DUN...DUN...Da-Dunna-na-nunna-na.
0:13
E-----------------------|
B-----------------------|
g-----6-5-3-------------|
D-6-3-6-5-3-------------|
A-6-3-4-3-1-------------|
E-4-1-------------------|

 Ab/F/Db/C/Bb

"Pre-Chorus' 0:37  Chords are below
B----------------------|
G-5-8-6-8-10-8-6-5-3-8-|
D-5-8-6-8-10-8-6-5-3-8-|
A-3-6-4-6-8--6-4-3-1-6-|
E----------------------|


Chorus (Bound For Glory) 0:50 Chords below.

G-----6-8-|
D-6-8-6-8-|
A-6-8-4-6-|
E-4-6-----|

1:08 Desperation always tells a story! Then back to the intro riff.

E----------|
B-6--4-----|
G-5--3-----|
D-3--1-----|
A-3--1-----|

Break at 2:09

E----------------------------------------------|
B----------------------------------------------|
G--------------------1-------------------------|repeat
D-3-3-1-3-3-1-3-3-1-3-3-1----------------------|
A----------------------------------------------|

E------------------------------------------|
B--------------------4---------------------|
G-5-5-3-5-5-3-5-5-3-5-5-3-5-6-8-10-12-13---|

Solo (As far as I can tell, the key of F works great)
Chorus

Intro riff

SO let me say it. This is not great, but maybe one of you guitar heroes can take this 
and manifest what is a great track off of their successful debut album.
Rock on.
Roblind.
Tap to rate this tab
# A B C D E F G H I J K L M N O P Q R S T U V W X Y Z