Song name
# A B C D E F G H I J K L M N O P Q R S T U V W X Y Z

Black Stone Cherry - Crosstown Woman tab

-------------------------------------------------------------------------------
CROSSTOWN WOMAN – Black Stone Cherry
-------------------------------------------------------------------------------
Tabbed by:	Nick Dupont (sikk_nick)
Email: sikk_nick@yahoo.com

 This was originally tabbed in Drop-D so I had to  go thru and fix that
if there are any parts i messed up because of that, let me know,
I will fix it.

In this tab I have two different symbols for bend. 

For clarification see the bottom of my tab, it’s not that important
but it may help some of you noobs understand and also it sounds better


Tuning:  Standard, one whole step flat
[D,G,C,F,A,d]

Rhythm chords for intro
|------------|------------|
|------------|------------|
|------------|-(2)--------|
|--2---------|--2---------|
|--2---------|--2---------|
|--0---------|--0---------|

Lead intro
|-----------------|-----------------|-----------------|-----------------|
|-----------------|-----------------|-----------------|-----------------|
|-----------------|-----------------|-----------------|-----------------|
|-----------------|-----------------|-----------------|-----------------|
|-5h7---7---7-----|-5h7---7---7-----|-5h7---7---7-----|-5h7---7-5-------|
|-0---0-0-0-0-0-7-|-0---0-0-0-0-0-7-|-0---0-0-0-0-0-7-|-0---0-----6-5\3-|

|-----------------|-----------------|-----------------|-----------------|
|-----------------|-----------------|-----------------|-----------------|
|-----------------|-----------------|-----------------|-----------------|
|-----------------|-----------------|-----------------|-----------------|
|-5h7---7---7-----|-5h7---7---7-----|-5h7---7---7-----|-5---------------|
|-0---0-0-0-0-0-7-|-0---0-0-0-0-0-7-|-0---0-0-0-0-0-7-|-0---------------|


___________________________________________________________________
both guitars
|-----------------|-----------------|-----------------|-----------------|
|-----------------|-----------------|-----------------|-----------------|
|-----------------|-----------------|-----------------|-----------------|
|-----------------|-----------------|-----------------|-----------------|
|-5h7---2---2---2-|-5h7---2---2---2-|-5h7---2---2---2-|-5h7---7p5-------|
|-0-----0---0---0-|-0-----0---0---0-|-0-----0---0---0-|-0-----0---6-5\3-|

|-----------------|-----------------|-----------------|
|-----------------|-----------------|-----------------|
|-----------------|-----------------|-----------------|then do the really
|-----------------|-----------------|-----------------|fast little lick
|-5h7---2---2---2-|-5h7---2---2---2-|-5h7---2---7p5---|
|-0-----0---0---0-|-0-----0---0---0-|-0-----0---0-----|


|Guitar 1 (pull-offs)
|---------------------------------------------------------|
|---------------------------------------------------------|
|--4p2p0--------------------------------------------------|
|---------4p2p0--4p2p0------------------------------------|
|-----------------------4p2p0-----------------------------|
|-----------------------------3^^slow bend----------------|
|Guitar 2-distorted 
|---------------------------------------------------------|
|---------------------------------------------------------|
|--4p2----------------------------------------------------|
|------5-4p2----4p2---------------------------------------|
|------------5------5-4p2---------------------------------|
|-------------------------5-3^^slow bend------------------|

Ok this part is all the same notes, but if you listen,
the two different guitars play it differently:
they start the same, and they finish the same, but in the middle they aren’t lined up…
The first guitar pauses after each set of pulloffs
And guitar 2 goes a steady pace the whole way 

Pre-verse lick
|--------------------------------------|
|--------------------------------------|
|-------------------------------13\\---|
|----—12^----12^----12^---12h14-14\\---|
|--/14-----14-----14----14-------------|
|--------------------------------------|

VERSE

Guitar 1
|----------------|--------------|----------------|-------------|
|----------------|--------------|----------------|-------------|
|----------------|--------------|----------------|-------------|
|----------------|--------------|----------------|-------------|
|-5-7--5-7--5-7--|--5-7--5-7--5-|---5----5----5--|----5-----5--|
|-0-0--0-0--0-0--|--0-0--0-0--0-|-7-0--7-0--7-0--|--7-0--7--0--|

|----------------|--------------|----------------|--------------|
|----------------|--------------|----------------|--------------|
|----------------|--------------|----------------|--------------|
|----------------|--------------|----------------|--------------|
|-5-7--5-7--5-7--|--5-7--5-7--5-|---5----5----5--|--------5--7--|
|-0-0--0-0--0-0--|--0-0--0-0--0-|-7-0--7-0--7-0--|--7-7-7-0--0--|


CHORUS

*Guitar one plays top note
 Guitar 2 plays bottom note
|---------|----------|--------------|----------|
|---------|----------|--------------|----------|
|------*--|------*-*-|-7--7--7--7-7-|----------|
|-2-2-/7--|-5-5-/7-5-|-7--7--7--7-7-|--7-------|
|-2-2-/9--|-5-5-/9-7-|-5--5--5--5-5-|--7-------|
|-0-0-----|-3-3------|--------------|--5-------|

|---------|----------|--------------|----------|
|---------|----------|--------------|----------|
|------*--|------*-*-|-7--7--7--7-7-|----------|
|-2-2-/7--|-5-5-/7-5-|-7--7--7--7-7-|--7---5---|
|-2-2-/9--|-5-5-/9-7-|-5--5--5--5-5-|--7---5---|
|-0-0-----|-3-3------|--------------|--5---3---|


|--------------------------------------|--------------------------------------|
|--------------------------------------|--------------------------------------|
|--------------------------------------|-------------------------------13\\---|
|----—12^----12^----12^---12h14-14~~---|----—12^----12^----12^---12h14-14\\---|
|--/14-----14-----14----14-------------|--/14-----14-----14----14-------------|
|--------------------------------------|--------------------------------------|


Verse 2
Guitar 1 plays verse
Guitar 2 plays chords

Guitar 2
|----------------|--------------|----------------|-------------|
|--------8----8--|-------8----8-|--------7----7--|-----7---7---|
|--------9----9--|-------9----9-|--------7----7--|-----7---7---|
|--------9----9--|-------9----9-|--------7----7--|-----7---7---|
|--------7----7--|-------7----7-|--------5----5--|-----5---5---|
|----------------|--------------|----------------|-------------|

|----------------|--------------|----------------|-------------|
|--------8----8--|-------8----8-|--------7-------|-------------|
|--------9----9--|-------9----9-|--------7-------|-------------|
|--------9----9--|-------9----9-|--------7-------|-------------|
|--------7----7--|-------7----7-|--------5-------|-------------|
|----------------|--------------|--------------play fill-------|

FILL
|-------------------|
|-------------------|
|-------------------|
|--------------0h2--|
|--------0h1h2------|
|--0h2h3------------|


--------
Chorus 
--------

SOLO

Rhythm 
(a lot more fun to play in drop-d)

|-----------------------------------|---------------------------------------------------------|
|-----------------------------------|---------------------------------------------------------|
|--5-5-5-5-5-5-5-5------------------|---------------------------------------------------------|
|--5-5-5-5-5-5-5-5--7-7-7-7-7-7-7-7-|---------------------------------------------------------|
|--3-3-3-3-3-3-3-3--7-7-7-7-7-7-7-7-|-5---2-2---5---2-2---5---2-2---5---2-2---5---2-2-5---2-2-|
|-------------------5-5-5-5-5-5-5-5-|-3p0-0-0---3p0-0-0---3p0-0-0---3p0-0-0---3p0-0-0-3p0-0-0-|

|-----------------------------------|---------------------------------------------------------|
|-----------------------------------|---------------------------------------------------------|
|--5-5-5-5-5-5-5-5------------------|---------------------------------------------------------|
|--5-5-5-5-5-5-5-5--7-7-7-7-7-7-----|---------------------------------------------------------|
|--3-3-3-3-3-3-3-3--7-7-7-7-7-7-----|-5---2-2---5---2-2---5---2-2---5---2-2---5---2-2-5---2-2-|
|-------------------5-5-5-5-5-5-x\\-|-3p0-0-0---3p0-0-0---3p0-0-0---3p0-0-0---3p0-0-0-3p0-0-0-|

|-----------------------------------|---------------------------------------------------------|
|-----------------------------------|---------------------------------------------------------|
|--5-5-5-5-5-5-5-5------------------|---------------------------------------------------------|
|--5-5-5-5-5-5-5-5--7-7-7-7-7-7-7-7-|---------------------------------------------------------|
|--3-3-3-3-3-3-3-3--7-7-7-7-7-7-7-7-|-5---2-2---5---2-2---5---2-2---5---2-2---5---2-2-5---2-2-|
|-------------------5-5-5-5-5-5-5-5-|-3p0-0-0---3p0-0-0---3p0-0-0---3p0-0-0---3p0-0-0-3p0-0-0-|

|-----------------------------------|---------------------------------------------------------|
|-----------------------------------|---------------------------------------------------------|
|--5-5-5-5-5-5-5-5------------------|---------------------------------------------------------|
|--5-5-5-5-5-5-5-5--7-7-7-7-7-7-7-7-|---------------------------------------------------------|
|--3-3-3-3-3-3-3-3--7-7-7-7-7-7-7-7-|-5---2-2---5---2-2---5---2-2---5---2-2---5---2-2-5---2-2-|
|-------------------5-5-5-5-5-5-5-5-|-3p0-0-0---3p0-0-0---3p0-0-0---3p0-0-0---3p0-0-0-3p0-0-0-|

|-----------------------------------|
|-----------------------------------|
|--5-5-5-5-5-5-5-5------------------|
|--5-5-5-5-5-5-5-5--7-7-7-7-7-7-7-7-|
|--3-3-3-3-3-3-3-3--7-7-7-7-7-7-7-7-|
|-------------------5-5-5-5-5-5-5-5-|
Solo (lead)



|--|-------------------------------------------------------------------------|
|--|-------------------------------------------------------------------------|
|--|-------------------------------------------------------------------------|
|--|-----12----12h14-14p12------12h14-14p12----------------------------------|
|--|--------14-------------14---------------12b14r12-(10)-------10b12--10----|
|--|----------------------------------------------------12--------------12~--|

|--|--------------------------------------------------------------------------------------|
|--|--------------------------------------------------------------------------------------|
|--|--------------------------------------------------------------------------------------|
|--|-----12----12h14-14p12------12h14-14--------------------------------------------------|
|--|--------14-------------14------------14--12b14r12-10--12b14r12-10--12b14---12--10-----|
|--|-----------------------------------------------------------------------------12--12~--|

|------------------------------------------------------------------|
|------------------------------------------------------------------|
|------------------------------------------------------------------|
|-5---7b9~--7b9r7p5-7~~--7b9r7p5--7p5---5--------------------------|
|--5---------------------------------7---7p5--7p5---5--------------|
|------------------------------------------------7---7p5--7p5\3p0--|

|-----------------------------------------------------|
|-----------------------------------------------------|
|---------------7-------------------------------------|
|--------7^8--9---9--7^8--9--7^9-7-5--7b9r7~~~--5-----|
|------0------------------------------------------7~~-|
|-/x\--0----------------------------------------------|

|-------------------------------------------------------------------------------------------|
|--15b17r15b17--17b(20)~----12-15p12---12---------------------------------------------------|
|-------------------------14--------14---14p12-14p12---12-----------------------------------|
|---------------------------------------------------14---14p12-14p12---12-------------------|
|-------------------------------------------------------------------14---14p12-14p12\10-----|
|---------------------------------------------------------------------------------------12--|

|--15b17~~-||-------------------both guitars------------------------------|
|----------||-Lead--------------------------------------------------------|
|----------||--2-/5--4-/7--5-/9---7-/10---9-/12--10-/14--12-/16--14-/17---|
|----------||--4-/7--5-/9--7-/10--9-/12--10-/14--12-/15--14-/17--15-/19—--|
|----------||-Rhythm------------------------------------------------------|
|----------||-------------------------------------------------------------|


CHORUS

End with this (substitute for the last bar of the chorus)


|------------------|--------------|
|------------------|--------------|
|------------4-----|--------------|
|---7--5-----4--5--|-----------2--|
|---7--5-----2--5--|------5h7--2--|
|---5--3--------3--|--5h7------0--|


**BENDS**

b——I use the “ 7b9 ” for a regular bend.  (just bend to the pitch shown)

example 7b9 
7th fret bend up two half-steps (to a 9)


^——I use the “ 7^ ” for a smaller bend, usually an index finger bend where you pull down 

example 7^
7th fret bend to approximately 7.5 
example 7^8
7th fret bend up a half step (to an 8)

Tap to rate this tab
# A B C D E F G H I J K L M N O P Q R S T U V W X Y Z