Song name
# A B C D E F G H I J K L M N O P Q R S T U V W X Y Z

Black Stone Cherry - Reverend Wrinkel tab

1 whole step lower. 
Drop D
tabbed by Andy Dowdy any questions email at Censoredgod117@hotmail.com
anything else you want tabbed just let me know.  :)


Repeat:    


E------------------------------|
b------------------------------|
g------------------------------|
d------------------------------|
a--8p0-5p0--3p0--2p0-------5---|
D-------------------0h2h3------|


Alternate ending
E|-------------------------|
b|-------------------------|
g|-------------------------|
d|-------------------------|
a|-8p0-5p0-3p0-2p0---------|
D|----------------0h2h3----|

Chords part, havent finished the last progression yet. kinda late lol.
E|-------------------------------------------|
b|-------------------------------------------|
g|-------------------------------------------|
d|----10/7--x-x--2/3--x-xx--5-5-x-xx-3bp0----|
a|-----8/5--x-x--2/3--x-xx--2/3-x-xx-3bp0----|
D|----------x-x--2/3--x-xx------x-xx-3bp0----|


its not perfect but it is the only tab :)
Tap to rate this tab
 
# A B C D E F G H I J K L M N O P Q R S T U V W X Y Z