Song name
# A B C D E F G H I J K L M N O P Q R S T U V W X Y Z

Black Stone Cherry - Blind Man tab

Band/Artist - Black stone cherry
Album - Folklore and superstition
Song - Blind man
Tuning - Drop C#

This is another cool song by Black stone cherry. I tabbed this out before 
their new album came out coz I though that loads of people would wanna learn
the song when they actually release the album. This is their only song 
which has been released so far, but its really cool and matches all their
old songs. I think my tab is pretty accurate, listen to the song for timings 
and such. So, hope you enjoy! Remember to comment and rate.

intro:                                (Rest of the band comes in here)
|--------------------------------------------|
|--------------------------------------------|   
|------------------------------------------5-|x2
|---------------3-5--------------------3-5-5-|
|---/5---3-5-------3--5--/5---3-5----1-3-5-3-|
|--0--0-5----0-3--------0--0-5----0-3--3-5---|

verse:
|------------------------------------------------|
|------------------------------------------------|
|------------------------555---------------------|
|--0---------------------555-555-----3-----------|
|--0--3h5---3h5---3h5----333-555--/5--5-3h5p3----|
|--000---000---000---000-----555-0--0--------5-3-|
 pm.....................
|---------------------------------------------|
|---------------------------------------------|
|------------------------555------------------|
|--0---------------------555-3-5--------------|
|--0--3h5---3h5---3h5----333-3-5--/5-----3-5--|
|--000---000---000---000-----3-5-0--0-3-5-----|
 pm.....................
|------------------------------------------------|
|------------------------------------------------|
|------------------------555---------------------|
|--0---------------------555-555-----3-----------|
|--0--3h5---3h5---3h5----333-555--/5--5-3h5p3----|
|--000---000---000---000-----555-0--0--------5-3-|
 pm.....................
|---------------------------------------------|
|---------------------------------------------|
|------------------------555------------------|
|--0---------------------555-3-5--------------|
|--0--3h5---3h5---3h5----333-3-5--/5-----3-5--|
|--000---000---000---000-----3-5-0--0-3-5-----|
 pm.....................

pre-chorus:
|------------------------------------------|
|------------------------------------------|
|--7---77---75---5-------------------------|
|--7---77---75---55---5-3333333-222222222--|
|--5---54---43---35---5-3333333-222222222--|
|-----------------5---5-3333333-222222222--|
                        pm............
chorus:
|--------------------------------------|
|--------------------------------------|
|------------------55-5555-------------|
|--00-0000-33-3333-55-5555-555---------|
|--00-0000-33-3333-33-3333-555----3-5--|
|--00-0000-33-3333---------555-3-5-----|

|--------------------------------------|--------------|
|--------------------------------------|--------------|
|------------------55-5555-------------|--------------|
|--00-0000-33-3333-55-5555-555---------|--3333-55555--|
|--00-0000-33-3333-33-3333-555----3-5--|--3333-55555--|
|--00-0000-33-3333---------555-3-5-----|--3333-55555--|

fill:
|--------------------------------------------|
|--------------------------------------------|   
|------------------------------------------5-|
|---------------3-5--------------------3-5-5-|
|---/5---3-5-------3--5--/5---3-5----1-3-5-3-|
|--0--0-5----0-3--------0--0-5----0-3--3-5---|

verse:
|------------------------------------------------|
|------------------------------------------------|
|------------------------555---------------------|
|--0---------------------555-555-----3-----------|
|--0--3h5---3h5---3h5----333-555--/5--5-3h5p3----|
|--000---000---000---000-----555-0--0--------5-3-|
 pm.....................
|---------------------------------------------|
|---------------------------------------------|
|------------------------555------------------|
|--0---------------------555-3-5--------------|
|--0--3h5---3h5---3h5----333-3-5--/5-----3-5--|
|--000---000---000---000-----3-5-0--0-3-5-----|
 pm.....................
pre-chorus:
|------------------------------------------|
|------------------------------------------|
|--7---77---75---5-------------------------|
|--7---77---75---55---5-3333333-222222222--|
|--5---54---43---35---5-3333333-222222222--|
|-----------------5---5-3333333-222222222--|
                        pm............
chorus:
|--------------------------------------|
|--------------------------------------|
|------------------55-5555-------------|
|--00-0000-33-3333-55-5555-555---------|
|--00-0000-33-3333-33-3333-555----3-5--|
|--00-0000-33-3333---------555-3-5-----|

|--------------------------------------|--------------|
|--------------------------------------|--------------|
|------------------55-5555-------------|--------------|
|--00-0000-33-3333-55-5555-555---------|--3333-55555--|
|--00-0000-33-3333-33-3333-555----3-5--|--3333-55555--|
|--00-0000-33-3333---------555-3-5-----|--3333-55555--|

bridge:(aint sure about this part)
|-----------------------|
|-----------------------|
|-----------------------|
|-----3---------3-------|
|--3h5-35----3h5-35-----|
|--------535-------535--|

|-----------------------|----------------------|
|-----------------------|----------------------|
|-----------------------|----------------------|
|-------3---------3-----|-----3----------3-----|
|--3h5-5-5-5-3h5-5-5-5--|--3h5-35----3----535--|
|-----------------------|--------535--535------|

|---------------------|----------------------|
|---------------------|----------------------|
|---------------------|----------------------|
|-------3---------3---|-----3----------3-----|
|--3h5-5-5-5-3h5-5----|--3h5-35----3----535--|
|------------------0--|--------535--535------|

|-----------------------|----------------------------|
|-----------------------|----------------------------|
|-----------------------|----------------------------|
|-------3---------3-----|--3h5------3h5------3h5-----|
|--3h5-5-5-5-3h5-5-5-5--|-----3h5------3h5-----------|
|-----------------------|--------3h5------3h5---3h5--|

|----------------------|
|----------------------|
|----------------------|
|-------3--------------|
|--3h5-5-5-3-5-3-3-----|
|---------------5-5-3--|

solo: (backing for solo is the chorus, have loads of wah! on the solo)
|-----------------------------------------------------------------|
|--13^15~~~~~~10h13p10-13^15-10h13p10-13^15-10h13p10--10h13p10----|
|---------------------------------------------------12--------12--|
|-----------------------------------------------------------------|
|-----------------------------------------------------------------|
|-----------------------------------------------------------------|

|--------------------------------------------------------------------|
|-----------------------------------------------------13-------------|
|--12^13-12-10-12-10--10-------------------10-10-12^13--12-10-12-10--|
|-------------------12--12-10-----------/12--------------------------|
|----------------------------12-11-10-8------------------------------|
|--------------------------------------------------------------------|

(The tapping part)                         +       +
|-----------------------------------------------------------|
|-----------------------------------------------------------|
|--9h10-9h10-9h10-9h10-9h10-9h10-9h10-9h10-14p9h10-14p9h10--|
|-----------------------------------------------------------|
|-----------------------------------------------------------|
|-----------------------------------------------------------|

   +      +      +      +      +      +  
|---------------------------------------------------|-----------------------------------|
|---------------------------------------------------|----10h13--10h13--10h13------------|
|--14p7h9-14p7h9-14p5h7-14p5h7-14p4h5-14p4h5-7~~~~--|--12~~---12~~---12~~---12^13-10----|
|---------------------------------------------------|-------------------------------12~~|
|---------------------------------------------------|-----------------------------------|
|---------------------------------------------------|-----------------------------------|

pre-chorus:
|------------------------------------------|
|------------------------------------------|
|--7---77---75---5-------------------------|
|--7---77---75---55---5-3333333-222222222--|
|--5---54---43---35---5-3333333-222222222--|
|-----------------5---5-3333333-222222222--|
                        pm............
chorus:
|--------------------------------------|
|--------------------------------------|
|------------------55-5555-------------|
|--00-0000-33-3333-55-5555-555---------|
|--00-0000-33-3333-33-3333-555----3-5--|
|--00-0000-33-3333---------555-3-5-----|

|--------------------------------------|--------------|
|--------------------------------------|--------------|
|------------------55-5555-------------|--------------|
|--00-0000-33-3333-55-5555-555---------|--3333-55555--|
|--00-0000-33-3333-33-3333-555----3-5--|--3333-55555--|
|--00-0000-33-3333---------555-3-5-----|--3333-55555--|

outro:
|-----------------------------------------------|
|--------------------------------------------6~~|   
|--------------------------------------------5~~|
|---------------3-5--------------------------4~~|
|---/5---3-5-------3--5--/5---3-5----3h5-3h5-5~~|
|--0--0-5----0-3--------0--0-5----0-3-----------|

And there you go. I hope you didnt have trouble learning it. It's quite easy,
apart for the solo, which took a while to figure out, but I think I got it.
So, thanks for having a look, and see ya. BSC RULES!!

Tap to rate this tab
# A B C D E F G H I J K L M N O P Q R S T U V W X Y Z