Song name
# A B C D E F G H I J K L M N O P Q R S T U V W X Y Z

Black Stone Cherry - When The Weight Comes Down tab

This is what i got when trying 2 figure it out using headphones and no amp lol 
so if its wrong .... im workin on it :)



|-------------------------------| x 6 through the intro
|-------------------------------|
|--------5-5-5--3-3-3--5-5-5----|
|-0-3-0--5-5-5--3-3-3--5-5-5----|
|-0-3-0--3-3-3--1-1-1--3-3-3----|
|-0-3-0-------------------------|


Verse (u gotta listen close)                
                                                                 x3
|---------------------------------------------------------------------
|---------------------------------------------------------------------
|------------------5-/-7----------------------------------------------
|-0-0-0-0-0-0-0-0--5-/-7--5p3--3p0---0-0-0-0-0-0-0-0--0h3--3h5--------
|-0-0-0-0-0-0-0-0--3-/-5--5p3--3p0---0-0-0-0-0-0-0-0--0h3--3h5--3h5~--
|-0-0-0-0-0-0-0-0---------5p3--3p0---0-0-0-0-0-0-0-0--0h3--3h5--------
PM...............                    ............... 

--------------------------------------------------------------------|
--------------------------------------------------------------------|
------------------5-/-7---------------------------------------------|
-0-0-0-0-0-0-0-0--5-/-7--5p3--3p0---0-0-0-0-0-0-0-0-3-3-3-3-3-3-3-3-|
-0-0-0-0-0-0-0-0--3-/-5--5p3--3p0---0-0-0-0-0-0-0-0-3-3-3-3-3-3-3-3-|
-0-0-0-0-0-0-0-0---------5p3--3p0---0-0-0-0-0-0-0-0-3-3-3-3-3-3-3-3-|
...............                     ...............................


Prechorus ("So where are you gonna be....?")

|--------------------------------------------------|
|--------------------------------------------------|
|-3-3--3-3-3--5-5--5-5-5---------------------------|
|-3-3--3-3-3--5-5--5-5-5--0-0--0-0-0--3-3-3h5-5----|
|-1-1--1-1-1--3-3--3-3-3--0-0--0-0-0--3-3-3h5-5----|
|-------------------------0-0--0-0-0--3-3-3h5-5----|


|-----------------------------|
|-----------------------------|
|-3-3--3-3-3--5-5--5-5-5------|
|-3-3--3-3-3--5-5--5-5-5------|
|-1-1--1-1-1--3-3--3-3-3------|
|-----------------------------|



Chorus ("When the weight comes down....")
liste for the timing and strumming (not just one strum like i put here)

|-----------------------------------------------------------|
|-----------------------------------------------------------|
|-----5~--3~--------------5~--3~----------------------------|
|-0~--5~--3~--5~------0~--5~--3~--5555555555555555----------|
|-0~--3~--1~--5~------0~--3~--1~--5555555555555555----------|
|-0~----------5~------0~----------5555555555555555----------|
PM                                ................


REPEAT INTRO

REPEAT VERSE

REPEAT PRE CHORUS + CHORUS


Small Pre Solo

|-----------------------------------|
|-----------------------------------|
|-----------------------------------| Repeat this little part upto the solo
|-000-000--0-0--5-3-0-0--0-0-0-0----|
|-000-000--0-0--5-3-0-0--0-0-0-0----|
|-000-000--0-0--5-3-0-0--0-0-0-0----|
PM..............................

I dont know the solo ... i improv it

rhythm over the solo is just the INTRO 


REPEAT PRECHORUS + CHORUS

REPEAT INTRO FOR ENDING



Tap to rate this tab
 
# A B C D E F G H I J K L M N O P Q R S T U V W X Y Z